Oops, an error
Loading. Please wait.

Ya Se Que I've Got You (Under My Skin) Chords

92 views 1 this week
no commentswrite comment
1 2 3 4 5
3 more votes to show rating
add to favorites
launch autoscroll
font size
0
reset
transpose
0
reset
simplify chords
display chords
guitar tuner
×
Best way to learn
"Ya Se Que I've Got You (under My Skin)"
Autoscroll
slow
fast
+/-
esc
set tempo
stop
Pues aqui tienen los acordes y partes de guitarra del single de Marcelo que es un crack!
Musico culto y de culto.

**YA SE QUE I´VE GOT YOU (UNDER MY SKIN)** - Marcelo Champanier
==========================================

Riff: (x2)
|----------------------------------------------------|
|--5-7-8-8/10-8-7-10-8-------------------------------|
|----------------------7~----7-7-7h8--5-4h5-5h7------|
|-----------------------------------------------6----|
|----------------------------------------------------|
|----------------------------------------------------|

|--------------------5---------------------| 
|----5b6r5-------5h7---7-----5b6r5---------| 
|-(6)------6---6----------(6)------6-------| 
|------------------------------------------| 
|------------------------------------------| 
|------------------------------------------| 


C             Cm                G Gsus4 G 
Ya se que I´ve got you under my skin

B7               Em
aún siguiendo sin ti

C                     B7         Em 
llevo en el lomo las heridas de vivir.


Voy a dejar el corazón
en la heladera
hasta la primavera del amor.

Dejé colgada nuestra foto en la pared
de la cueva del tiempo
para que no se me olvide... olvidar.

Riff(x1)

Ya se que I´ve got you under my skin
aún siguiendo sin ti
llevo en el lomo las heridas de vivir.

Llegó la hora de la soledad
parece que hoy no vas a venir
para dejarme un beso a la hora de dormir.

Te extraño y no se que hacer
al amanecer
mi mundo se reduce a la superficie de tu piel.

Riff(x1)

Ya se que I´ve got you under my skin,
y con eso me basta?

Riff(x1)


Los acordes estan perfectos porque me los dió el propio Marcelo(gracias compañero!),
 y la tab es mia asi que cualquier correccion es bienvenida.
Aguante!
Suggest correction
Give kudos to tab author, rate the tab!
1 2 3 4 5
comments
print report bad tab
guest
You may want to rate the tab now too:
select rating
Wanna post a correction for this tab? Suggest correction