Oops, an error
Loading. Please wait.

Up A Hill Bass Tab

19 views 3 this week
no commentswrite comment
1 2 3 4 5
3 more votes to show rating
add to favorites
launch autoscroll
font size
0
reset
guitar tuner
Autoscroll
slow
fast
+/-
esc
set tempo
stop
Help us to improve Ultimate-Guitar.com Take our survey!
×
Author
[Intro]
(0:35)
G|--------------------------------------|
D|--------------------2-------------1---|
A|--------------------------------------|
E|------1-3----1-1-3--------1-1-3-------|

G|-----------------------------|
D|-----------------------------|
A|-----------------------------|
E|------1-1-3---------1-1-3----|

[Verse]
G|---------------------------------------|
D|------------------------------3--------| x3
A|---------------------------------------|
E|----1-1-3---1-1-3-3-0--1-1-3--------1--|

G|------------------------------------|
D|------------------------------------|
A|------------------------------------|
E|----1-1-3---1-1-3-3-0--1-1-3--------|

[Refrain]
G|------------------------------------------------|
D|----------8--8--------5-5-----------------------|
A|------6--------8--8-8------3---3----------------|
E|---------------------------------3--------------|   

G|------------------------------------------------|
D|----------------------8--8--------5-5-----------|
A|-------------------6-------8--8-8------3---3----|
E|-------1-1-3-3-0-----------------------------3--|

G|------------------------------------------------|
D|-------------------10-9-7-----10-9-7------------|
A|----------------6-------------------------------|
E|----1-1-33-0-------------------------------1----|

[Verse]
G|---------------------------------------|
D|------------------------------3--------|x3
A|---------------------------------------|
E|----1-1-3---1-1-3-3-0--1-1-3--------1--|

G|---------------------------------------|
D|---------------------------------------|
A|---------------------------------------|
E|----1-1-3---1-1-3-3-0--1-1-3-----------|

[Refrain]
G|------------------------------------------------|
D|----------8--8--------5-5-----------------------|
A|------6--------8--8-8------3---3----------------|
E|---------------------------------3--------------|

G|------------------------------------------------|
D|----------------------8--8--------5-5-----------|
A|-------------------6-------8--8-8------3---3----|
E|-------1-1-3-3-0-----------------------------3--|

G|---------------------------------9------------------|
D|-------------------10-9-7-----10---7----------------|
A|----------------6-----------------------------------|
E|----1-1-33-0------------------------------11/8----1-|

[Bridge]
G|---------------------------------------|
D|------------------------------3--------| x3
A|---------------------------------------|
E|----1-1-3---1-1-3-3-0--1-1-3--------1--|

G|--------------------------------------|
D|--------------------------------------|
A|--------------------------------------|
E|----1-1-3---1-1-3-3-0--1-1-3----------|

[Refrain]
G|------------------------------------------------|
D|----------8--8--------5-5-----------------------|
A|------6--------8--8-8------3---3----------------|
E|---------------------------------3--------------|

G|------------------------------------------------|
D|----------------------8--8--------5-5-----------|
A|-------------------6-------8--8-8------3---3----|
E|-------1-1-3-3-0-----------------------------3--|

G|-------------------------------------9-----------------|
D|-------------------10-9-7-----7-9-10---7---------------|
A|----------------6--------------------------------------|
E|----1-1-33-0---------------------------------11/8----1-|

G|---------------------------------------|
D|------------------------------3--------| x7
A|---------------------------------------|
E|----1-1-3---1-1-3-3-0--1-1-3--------1--|

[Last part]
(Repeat until the end)
G|-------------------------------------------------|
D|---777-888-777-10-10-10--888-777--8-7-----555----|
A|--------------------------------------8----------|
E|-------------------------------------------------|


************************************

| /  Slide up

************************************
Suggest correction
Give kudos to tab author, rate the tab!
1 2 3 4 5
comments
print report bad tab
guest
You may want to rate the tab now too:
select rating
Wanna post a correction for this tab? Suggest correction