Oops, an error
Loading. Please wait.

Todos Esos Momentos Tab

34 views 1 this week
no commentswrite comment
1 2 3 4 5
3 more votes to show rating
add to favorites
launch autoscroll
font size
0
reset
how to read this tab
guitar tuner
×
Best way to learn
"Todos Esos Momentos"
Autoscroll
slow
fast
+/-
esc
set tempo
stop
Gracias a carlitos182 por solicitar este tema.
No escucho tanto a enanitos verdes, pero aqui
esta este tema con el solo principal.

Por favor voten lo que crean justo, y dejen
sus comentarios de bajo esta pagina sobre la
transcripcion, se los agradesco.

rcok_sera@
elodionocesa

===================================================
F#
                          C#
dE todo LO viviDo sIempre vOy a recordar
  C#m                      G#m
todos esos momeNtOs Con amigos dE verdad
                            Bm
laS primerAs fiEstitas La cuchara el tenedOr
   F#                       C#                 B]-]
bailaba fasinaDo por la musIca de pOol que caNtaba


    F#                     C#
y asi vinO el ColEgio y deSpues el industriAl
         C#m             D#m
los primEros recitaLes yO soñanDo con estar
  G#m                      Bm
tocando aya arrIba nO importaba Nada mas
     F#          C#              B]-]
resultadO, tres a marzo, geografia

   F#                    F             E
CrEia que la muSicA mE iva a remidir
                               D#m                 G#m
pero eran LOs afectos los que ami me hacian vivir
                     D                    F#
mas cambian las cosas y mas queDan Igual
                        C#
al final ese amOr quedace era el amor que recibiras
 B]-]
eN tu vida

                           Bm
de tOdos los reCuErdoS y momentos que vivi
   A#m                    G#                   B
creo que los mejores son los que pase con vos
               C#
y Ahora tE amo mucho mas
=======================================
(toca esto durante el solo)
F#  F   E   D#m  G#m  D   F#  C#  B]-]
=======================================
E-----------------------------------
B-----------------------------------
G-6--6-----------------6-4-3------3-
D-----8(6)8---8--------------7-6-4--
A-------|---9---5/7-----------------
E-------|----------9----------------
  (si es|mas comodo no toces esta nota)
E-10-9-7-----------------------------------
B--------10-9-7-5--------------------------
G-----------------7-6----------------------
D---------------------9-8-6------------7---
A---------------------------9-7----7-9---9-
E-------------------------------10---------

E-11--11-10--10-8----8h10-10-8--8-6-
B-----------------------------------
G-----------------------------------
D-----------------------------------
A-----------------------------------
E-----------------------------------

E-6-7-9-7-5/6-6h7-6-6/7-4--4/6-6/8-6-5/3-
B----------------------------------------
G----------------------------------------
D----------------------------------------
A----------------------------------------
E----------------------------------------

E----3--------------------
B-3h5---5/7---------------
G----------7-5------------
D--------------8-7--------
A------------------7/9--9-
E-------------------------  B]-]

                           Bm
de tOdos los reCuErdoS y momentos que vivi
   A#m                    G#                   B
creo que los mejores son los que pase con vos
               C#
y Ahora tE amo mucho mas

F#
                       C#                     E
y Aun quE eL futurO es algo insierto para mi
                     D#m                G#m
tengo toDas las ganas para poder seguIr
                          D
y tengO eN mi mente a lOs amigos de verdad
 F#                    C#
esos que dan la vida por amor y siempre estan
      B]-]
Con jESus


                           Bm
de tOdos los reCuErdoS y momentos que vivi
   A#m                    G#                   B
creo que los mejores son los que pase con vos
               C#
y Ahora tE amo mucho mas

B   Bm
A#m                  G#                        B
creo que los mejores son los que pase con vos
            C#             B
y ahora te amo mucho mas

Bm  A#m  G#
   B        C#           B  Bm  A#m G#
Y ahora te amo mucho mas
Suggest correction
Give kudos to tab author, rate the tab!
1 2 3 4 5
comments
print report bad tab
guest
You may want to rate the tab now too:
select rating
Wanna post a correction for this tab? Suggest correction