Oops, an error
Loading. Please wait.

Si No Te Hubieras Ido Tab

version 1
version 1

Whole song

Interactive

17,835 views 21 this week
no commentswrite comment
1 2 3 4 5
excellent!
x 5
add to favorites
launch autoscroll
font size
0
reset
how to read this tab
guitar tuner
Autoscroll
slow
fast
+/-
esc
set tempo
stop
Help us to improve Ultimate-Guitar.com Take our survey!
×
Author
Difficulty
intermediate
Im not the real author im just adding it to this site :D

http://www.marcoantoniosolis.com.mx/

MODIFICACION A LA TRANSCRIPCION DE
Ivan Lopez  Castillo (criilc@hotmail.com)
**********************************************************************

bueno rebice las demas tablaturas y la verdad
 estan bien pero les falta algo y aqui esta,
 esta lindicima cancion que se la dedico a
lupita con todo mi corazon


INTRO:
                 Am                  F
e-----------------0-------------------1--|
B-------------1---0-----0/1--0--------3--|
G------0---2------2------------2--0---3--|
D---2-------------2-------------------2--|
A-----------------1-------------------0--|
E-----------------0-------------------0--|

                 Am                  F
e-----------------0-------------------1--|
B-------------1---0-----0/1--0--------3--|
G------0---2------2------------2--0---3--|
D---2-------------2-------------------2--|
A-----------------1-------------------0--|
E-----------------0-------------------0--|
                 Am
e-----------------0-|
B-------------1---0-|
G------0---2------2-|
D---2-------------2-|
A-----------------1-|
E-----------------0-|


Am                  F         G         C     rif 1
TE EXTRAÑO MAS QUE NUNCA Y N0 SE QUE HACER
Am                 F         G   C
DESPIERTO Y TE RECUERDO AL AMANECER   rif 2
G                              C       E7
ESPERA OTRO DIA POR VIVIR SIN TI
              Am          G
EL ESPEJO NO MIENTE
              F      G
ME VEO TAN DIFERENTE
                C
ME HACES FALTA TU  rif 1


Am             F            G    C
LA GENTE PASA Y PASA SIEMPRE TAN IGUAL  rif 1
Am               F        G       C
EL RITMO DE LA VIDA ME PARECE MAL      rif 2
G                                 C      E7  Am G
ERA TAN DIFERENTE CUANDO ESTABAS TU
F             G                       C  rif 2
SI QUE ERA DIFERENTE CUANDO ESTABAS TU


G                                   C       G C  rif 2
NO HAY NADA MAS DIFICIL QUE VIVIR SIN TI
G                                   C      G C rif 2
SUFRIENDO EN LA ESPERA DE VERTE LLEGAR
G                                  C
EL FRIO DE MI CUERPO PREGUNTA POR TI
   E7          Am     G
Y NO SE DONDE ESTAS
 F                   G          C
SI NO TE HUBIERAS IDO SERIA TAN FELIZ...(X2)


Am             F            G    C
LA GENTE PASA Y PASA SIEMPRE TAN IGUAL  rif 1
Am               F        G       C
EL RITMO DE LA VIDA ME PARECE MAL    rif 2
G                                 C      E7   Am  G
ERA TAN DIFERENTE CUANDO ESTABAS TU
F               G                    C
SI QUE ERA DIFERENTE CUANDO ESTABAS TU   rif 2


G                                   C       G C  rif 2
NO HAY NADA MAS DIFICIL QUE VIVIR SIN TI
G                                   C      G C rif 2
SUFRIENDO EN LA ESPERA DE VERTE LLEGAR
G                                  C
EL FRIO DE MI CUERPO PREGUNTA POR TI
   E7          Am     G
Y NO SE DONDE ESTAS
 F                   G          C
SI NO TE HUBIERAS IDO SERIA TAN FELIZ...(X2)

rif 1 :
      C          E7
E----------------------------------|
A-----3-----------2----------------|
D-------2-----------0--------------|
G---------0-----------1------------|
B-----------1-----------0----------|
e----------------------------------|

rif 2 :
E-----------------|
A-----------------|
D-----------------|
G--------2--0-----|
B-1/3--1----------|
e-----------------|
Suggest correction
comments
print report bad tab
guest
You may want to rate the tab now too:
select rating
Wanna post a correction for this tab? Suggest correction