Oops, an error
Loading. Please wait.

Magic Dream Tab

version 1
version 1

Intro

29 views 1 this week
no commentswrite comment
1 2 3 4 5
please rate
add to favorites
launch autoscroll
font size
0
reset
how to read this tab
guitar tuner
Tab Pro tools
  • play this tab
  • loop segment
  • change instrument
  • show fretboard
  • metronome
×
Best way to learn
"Magic Dream"
Autoscroll
slow
fast
+/-
esc
set tempo
stop
Contributor
Difficulty
Tuning
intermediate
E B E G# B E
Title: MAGIC DREAM 
Artist: MARCO ARAUJO
Album: MAGIC DREAM
Music: MARCO ARAUJO
Copyright: MARCO ARAUJO
Tempo = 130

Legend
L - tied note  x - dead note  h - hammer on/pull off
b - bend       s - slide      ~ - vibrato   g - ghost note
> - accentuated note          t - trill     M - palm mute
. - staccato   P - popping (bass)    S - slapping (bass)
+ - tapping    W - wide vibrato      = - tremolo picking
< - fade in    w - whammy bar        n - pick stroke down
v - brush up   ^ - brush down        V - pick stroke up

:part 1 intro:                                                                     
E |-------||---------------------------|----------------------------|
B |-------||---------------------------|----------------------------|
G |-------||-5--------2----------------|--7-------------------------|
D |-------||-5--------2----------------|--7--------5----------------|
A |-------||-3--------0--------0--0----|--5--------5----------------|
E |-------||---------------------------|-----------3--------3M-3M---|

                             
----------------------------|
----------------------------|
--5--------2----------------|
--5--------2----------------|
--3--------0--------0--0----|
----------------------------|

                                                      
---------------------------------------------------|||
---------------------------------------------------|||
--7------------------------------------------------|||
--7-----------------4h-5--4------------------------|||
--5-----------------------------7-----5-----3------|||
---------------------------------------------------|||

                            
---------------------------|
---------------------------|
---------------------------|
-5--------4--------5-------|
----0--0-----0--0-----0----|
---------------------------|

                                                     
----------------------------------------------------|
----------------------------------------------------|
----------------------------------------------------|
--------4h-5h-4-----------------------5-------------|
--0-----------------7-----5-----3-----------0-------|
----------------------------------------------------|

                                                          
----------------------------|---------------------------||
----------------------------|---------------------------||
----------------------------|---------------------------||
-----4--------5-------------|--------------5------------||
--0-----0--0-----------7----|-----3---------------------||
-----------------0--0-------|--0-----0--0--------0--0---||

                                                          
----------------------------|----------------------------|
----------------------------|----------------------------|
--5--------2----------------|--7-------------------------|
--5--------2----------------|--7--------5----------------|
--3--------0--------0--0----|--5--------5----------------|
----------------------------|-----------3--------3M-3M---|

                             
----------------------------|
----------------------------|
--5--------2----------------|
--5--------2----------------|
--3--------0--------0--0----|
----------------------------|

                                                     
----------------------------------------------------|
----------------------------------------------------|
--7-------------------------------------------------|
--7-----------------4h-5h-4-------------------------|
--5-----------------------------7-----5-----3-------|
----------------------------------------------------|

                                                          
----------------------------|----------------------------|
----------------------------|----------------------------|
--5--------2----------------|--7-------------------------|
--5--------2----------------|--7--------5----------------|
--3--------0--------0--0----|--5--------5----------------|
----------------------------|-----------3--------3M-3M---|

                             
----------------------------|
----------------------------|
--5--------2----------------|
--5--------2----------------|
--3--------0----------------|
--3M----------------3M-3M---|
            Solo 1:
-------------------|
-------------------|
--7----------------|
--7----------------|
--5----------------|
-------------------|
comments
We did not receive enough feedback on this tab! Please rate:
print report bad tab
1 2 3 4 5
I want to post or [tab]
guest
You may want to rate the tab now too:
select rating
Please do not post tabs as comments. Select "correction" instead!