Oops, an error
Loading. Please wait.

Agnus Dei Tab

version 1
version 1

Whole song

354 views 1 this week
no commentswrite comment
1 2 3 4 5
2 more votes to show rating
add to favorites
launch autoscroll
font size
0
reset
how to read this tab
guitar tuner
×
Best way to learn
"Agnus Dei"
Autoscroll
slow
fast
+/-
esc
set tempo
stop

Aleluya .........

E ---------2-------------------2--4--5--4-2-4--2---2----------
B -2-3-3/5---5-3-5----2-3-3/5---------------------5---5-3-5---
G ------------------------------------------------------------
D ------------------------------------------------------------
A ------------------------------------------------------------
E ------------------------------------------------------------

Aleluya.......
E ----------2-------------------2--4--5--5--7--9--5--7--9----
B -2-3-3/5---5-3-5----2-3-3/5--------------------------------
G -----------------------------------------------------------
D -----------------------------------------------------------
A -----------------------------------------------------------
E -----------------------------------------------------------

El Señor Dios...
E -----9-10-9--7-5-5-7-7--7--9--7--5-----7--9--7--5-----------
B --10--------------------------------7--------------7--------
G ------------------------------------------------------------
D ------------------------------------------------------------
A ------------------------------------------------------------
E ------------------------------------------------------------

Eres Santo....

E -10-10-10--10-9-7--9-9----9-10-9--7-5-5-7-7--7--9--7--5-----
B -----------------------10--------------------------------7--
G ------------------------------------------------------------
D ------------------------------------------------------------
A ------------------------------------------------------------
E ------------------------------------------------------------

  Santo eres Tú     Amén.
E -----7--9--7--5---------------------------------------------
B ----------------7--7--9-10---------------------------------
G ------------------------------------------------------------
D ------------------------------------------------------------
A ------------------------------------------------------------
E ------------------------------------------------------------

Es la primera vez que hago esto,espero que los tiempos esten bien
Saludos para los de la MBC de Lima-Perú y para Toto,Dios los bendiga a todos!!
Suggest correction
Give kudos to tab author, rate the tab!
1 2 3 4 5
comments
print report bad tab
guest
You may want to rate the tab now too:
select rating
Wanna post a correction for this tab? Suggest correction