Oops, an error
Loading. Please wait.

Agnus Dei Tab

version 2
version 2

Whole song

149 views 3 this week
no commentswrite comment
1 2 3 4 5
3 more votes to show rating
add to favorites
launch autoscroll
font size
0
reset
how to read this tab
guitar tuner
×
Best way to learn
"Agnus Dei"
Autoscroll
slow
fast
+/-
esc
set tempo
stop
Intro:

e||-----------------------------------------------------------
B||---------7------------------7-9-10v---9-7-9--7---7---------
G||-4s6-7-9---9h7h9v---4s6-7-9--------------------9----9h7h9v-
D||-----------------------------------------------------------
A||-----------------------------------------------------------
E||-----------------------------------------------------------

 e|----------------------|------------------------------------
 B|------------------10v-|---------7---------------9----9-10v-
 G|-4v--2v--2s9-9h11-----|-4s6-7-9---9h7h9v---9-11---11-------
 D|----------------------|------------------------------------
 A|----------------------|------------------------------------
 E|----------------------|------------------------------------

 e|----------------------------------------||
 B|---------7-9-10v---9-7-9--7---7---------||
 G|-4s6-7-9--------------------9----9h7h9v-||
 D|----------------------------------------||
 A|----------------------------------------||
 E|----------------------------------------||

Saludos a los del "Tabernaculo de Jehova" Minatitlan :p
Suggest correction
Give kudos to tab author, rate the tab!
1 2 3 4 5
comments
print report bad tab
guest
You may want to rate the tab now too:
select rating
Wanna post a correction for this tab? Suggest correction