Oops, an error
Loading. Please wait.

Agnus Dei Tab

version 3
version 3

Whole song

130 views 1 this week
no commentswrite comment
1 2 3 4 5
3 more votes to show rating
add to favorites
launch autoscroll
font size
0
reset
how to read this tab
guitar tuner
×
Best way to learn
"Agnus Dei"
Autoscroll
slow
fast
+/-
esc
set tempo
stop
e||-----------------------------------------------------------
B||--------5-7-5----------5-7-9-10---9-7-9---7-5-7---5-3-5----
G||-4s6-7----------4s6-7--------------------------------------
D||-----------------------------------------------------------
A||-----------------------------------------------------------
E||-----------------------------------------------------------


e||-----------------------------------------------------------
B||--------5-7-5----------5-7-9-10---10-12-14---12-14---------
G||-4s6-7----------4s6-7--------------------------------------
D||-----------------------------------------------------------
A||-----------------------------------------------------------
E||-----------------------------------------------------------


e||-----------------------------------------------------------
B||-12-14-15-14---12-10-12---12-14-12-10------12-14-12-10-----
G||--------------------------------------11----------------11-
D||-----------------------------------------------------------
A||-----------------------------------------------------------
E||-----------------------------------------------------------


e||-----------------------------------------------------------
B||-------12-14---12-14---12-14-15-14---12-10-12--------------
G||-11-13-----------------------------------------------------
D||-----------------------------------------------------------
A||-----------------------------------------------------------
E||-----------------------------------------------------------


e||-----------------------------------------------------------
B||-12-14-12-10------12-14-12-10------------------------------
G||-------------11---------------11---11-13-14----------------
D||-----------------------------------------------------------
A||-----------------------------------------------------------
E||-----------------------------------------------------------


Dios les continué bendiciendo...
Suggest correction
Give kudos to tab author, rate the tab!
1 2 3 4 5
comments
print report bad tab
guest
You may want to rate the tab now too:
select rating
Wanna post a correction for this tab? Suggest correction