Oops, an error
Loading. Please wait.

Al Que Esta Sentado Tab

161 views 1 this week
no commentswrite comment
1 2 3 4 5
3 more votes to show rating
add to favorites
launch autoscroll
font size
0
reset
how to read this tab
guitar tuner
×
Best way to learn
"Al Que Esta Sentado"
Autoscroll
slow
fast
+/-
esc
set tempo
stop
Hola! bueno..aki d nuevo poniendo esta rolita que la vdd..
esta muy chida..y osea..MARCO ES MARCO aajjajaja XD sus rolas son
de mucha bendicion para todos los que las escuchan..

y bueno sin mas palabras aki esta la cancion con el solo incluido..
Solo cheken la parte final donde le mete el wha..porque las repeticion son
un aprox. cada quien la puede tocar como quiera...

Y pss cualquier duda o sugerencia aki les de jo mi mail

bggs15@

CAlifiquenla no sean ajajja pa ir mejorando! un saludo

y ya saben.. DIOs le bendiga

MONTE HERMON..!! :)

atte: jorge

Intro: C, Gm, F

                  Gm
//Al que esta sentado en el trono
F                 C
y al coredero de Dios//

              G#                   Bb
////Sea la gloria, la honra, el poder
                     C
La alabanza por siempre////


SOLO: G# - A# - C

E ------------------------------------------
A ------------------------------------------
D -17---------------------------------------
G ----15-17---------------------------------
B ---------15-15b16-b16-b16r15-15-15-13-13--
e ------------------------------------------

E -----------------------------------------
A -----------------------------------------
D -----------------------------------------
G -----------------------------------------
B -15h16-16b18-b18-b18r16-16-16-15-15-15---
e -----------------------------------------

E -------------------------------------------
A -------------------------------------------
D -------------------------------------------
G -------------------------------------------
B -15-17-17b18r17-17-15-17-17b18-17b18-17-15-
e -------------------------------------------

E ------------------------------------------
A ------------------------------------------
D ------------------------------------------
G ------------------14----------------------
B -17-15-15h17p15-13--13--------------------
e ------------------------------------------

E ------------------------------------------
A ------------------------------------------
D ------------------------------------------
G -----------------------------15-----------
B -13-15-13-15b16-b16-b16r15p13--13---------
e ---------------------------------15-------

E -------------------------------------------------------------
A -------------------------------------------------------------
D -------------------------------------------------------------
G -----------------------------------------------------12-15~~-
B --------------------------------------------------13---------
e -15-15b16-15-13-15-15b16-b16-15-13-15-13-15p13p-12-----------

E --------------------------------------------------------
A --------------------------------------------------------
D --------------------------------------------------------
G ---12-15~---12------------------------------------------
B -13-------13---15b16-15-13-16b18-b18r16-16-15-15-13-13--
e --------------------------------------------------------

E ----------------------------------
A ----------------------------------
D ----------------------------------
G ----------------------------------
B -15-13-15b16-b16-b16r15p13-13-----
e ------------------------------15--

E -------------------------------
A -------------------------------
D -------------------------------
G -------------------------------
B -------------------------------
e -13h15-15b16r15-13-15-15--15---

E -------------------------------12-
A -------------------------15p13----
D --------------------15-14---------
G --------12-15-14-12---------------
B ------13--------------------------
e -15-13----------------------------

E -12---------12--------------------
A ---13-----15--13h15---------------
D -----15p14------------------------
G ----------------------------------
B ----------------------------------
e ----------------------------------


En esta parte es el final del solo..aki se hace con el wha..y pss
aki cada quien le puede tocar como guste..yo le puse un aproximado
de las veces que yo lo hago pero cad quien con su gusto..

vale..!

  (12)     (12)     (10)
E -X--------x--------x---------------------------------------------
A -X--------x--------x---------------------------------------------
D -6--------8--------x---------------------------------------------
G -8--------10-------9---10-10-10-10--12-12-12-12-12-12-12-12-s15~-
B -9--------11-------8---------------------------------------------
e -X--------x--------x---------------------------------------------


        G#
//Be blessing and Glory and
  Bb               C
honor and power forever//

         G#
//Be blessing and Glory and
   Bb
honor and power//
   C
forever!


Bueno sin mas..me despido..
un saludote y que les ayude msho..

Dios les bendiga.
MONTE HERMON COATZa
JORGE
Suggest correction
Give kudos to tab author, rate the tab!
1 2 3 4 5
comments
print report bad tab
guest
You may want to rate the tab now too:
select rating
Wanna post a correction for this tab? Suggest correction