Oops, an error
Loading. Please wait.

Amado Salvador Bass

87 views 1 this week
no commentswrite comment
1 2 3 4 5
3 more votes to show rating
add to favorites
×
Save as Personal and add changes to this tab that will be seen only by you. Learn more ›
×
You can save this tab as Personal to edit and correct it or add notes. All changes will be seen only by you. Learn more »
save as personal
new!
launch autoscroll
font size
0
reset
guitar tuner
Autoscroll
slow
fast
+/-
esc
set tempo
stop
Intro/Verso
e|-------------------------4---------------
a|-4-----4-----4-2-4-0-1-1---1-1-2m-2m-1-2-
d|---1-1--1-1------------------------------
g|-----------------------------------------

-------------------------|
-4-----4-----4-2-4-4-0-2-|
---1-1--1-1--------------|
-------------------------|

Adorno:
e|-------------|
a|-------------|
d|-2s4---------|
g|-----6-4-3s4-|


 F#            C#     E
Tu amor, amor que me dio la libertad
        B
tu sangre me dio la vida
  F#        C#
tu amor, camino, verdad y vida
 E    B
eres tu.


Solo de Guitarra/Final:
e|----------------4(5)-|
a|------1(5)-2(5)------|
d|-1(5)----------------|
g|---------------------|


Puente:
      F#       C#
Me alegrare y me gozare
      E        B
en ti Jesús mi redentor
 F#       C#
Amado Salvador
 E    B
eres tu
Suggest correction
Give kudos to tab author, rate the tab!
1 2 3 4 5
comments
print report bad tab
guest
Wanna post a correction for this tab? Suggest correction