Oops, an error
Loading. Please wait.

Amado Salvador Tab

version 1
version 1

Whole song

180 views 1 this week
no commentswrite comment
1 2 3 4 5
3 more votes to show rating
add to favorites
×
Save as Personal and add changes to this tab that will be seen only by you. Learn more ›
×
You can save this tab as Personal to edit and correct it or add notes. All changes will be seen only by you. Learn more »
save as personal
new!
launch autoscroll
font size
0
reset
how to read this tab
guitar tuner
Autoscroll
slow
fast
+/-
esc
set tempo
stop
Bueno aqui les presento ahora el solo de guitarra de amado salvador
lo saque a oido espero les sirva, a mi parecer esta muy parecido
haganlo y cualquier duda me dicen. :)

e-----------------------------9---------------------------------
b----------11-9-11-9--------------------------------------------
G---10h11------------11-10-10---10--10----------11-------11-13v-
D--------------------------------------11-11s13----13-13--------
A---------------------------------------------------------------
E---------------------------------------------------------------

e--------------------------------------------------9------------
b--------------14---------------11-9-11-9-----------------------
G--11-13s15-15----13p15p13--11------------11-10-10---10-10------
D----------------------------------------------------------11---
A---------------------------------------------------------------
E---------------------------------------------------------------

e---11v-16v---18-16-------18--------------------------18p19p18--
b-------------------19-18----18-18----------19----19------------
G----------------------------------18-18h20----20---------------
D---------------------------------------------------------------
A---------------------------------------------------------------
E---------------------------------------------------------------

e------------18----------18-------------------------------------
b--21-19-21-----21-19-18----18-18----------19-------------------
G---------------------------------18-18h20----20slide-----------
D---------------------------------------------------------------
A---------------------------------------------------------------
E---------------------------------------------------------------

En las partes de vibrato halen la cuerda arriba y abajo da un efecto de
vibrar para los q no sabian xD.
Leyenda:
v=vibrato
s=slide
h=hammer
Les aconsejo que escuchen la cancion y practiquen encima hasta
sacarlo a la perfeccion por los detalles que talves no pude poner aqui.
Bueno Bendiciones y espero que les haya sido de bendicion califiquen
y opinen para mejorar nos vemos.
Otra cosa digamos donde dice 18p19p18 es un solo sonido solo tocan la
cuerda una vez teniendo presionado la primera cuerda traste 18
inmediatamente despues golpean con el siguinte dedo en el traste 19 sin
soltar la primera posicion y luego lo vuelven a quitar, repito solo se
toca una vez la cuerda el movimiento debe ser rapido para que se escuchen
las 3 notas seguidas.
Esperemo haberme explicado bien---nos vemos
Suggest correction
Give kudos to tab author, rate the tab!
1 2 3 4 5
comments
print report bad tab
guest
Wanna post a correction for this tab? Suggest correction