Oops, an error
Loading. Please wait.

Amado Salvador Tab

version 2
version 2

Whole song

70 views 1 this week
no commentswrite comment
1 2 3 4 5
3 more votes to show rating
add to favorites
launch autoscroll
font size
0
reset
how to read this tab
guitar tuner
×
Best way to learn
"Amado Salvador"
Autoscroll
slow
fast
+/-
esc
set tempo
stop
Hola como estan..aki les traigo esta super cancion le tuve
k poner otro nombree
xk aki hay una version de tab pero no tiene solo..

Aki se las traigo con el solo incluido..y el baass...:) y el final..

La vdd la rola casi nu me pasaba pero de un tiempo para aca me encanta,
y ps nu encontre el solo asi k lo sake..:)

espero les sirva..cualkier duda les dejo mi correo..

bggs15@

bueno a lo k vamos...ai esta la canciuon..

atte: jorge
Monte Hermon (Coatzacoalcos)


Este es el bajeo....en la parte del verso..

E -----------------------------------
A -s6-6-6-4-6-6-6--2-4-4-2-4---------
D ---4-------------------------------
G -----------------------------------
B -----------------------------------
e -----------------------------------

E -4-6-6-6--4-6-6-6--6-7-7-6-7-------
A -----------------------------------
D -----------------------------------
G -----------------------------------
B -----------------------------------
e -----------------------------------

E -----------------------------------
A -s6-6-6-4-6-6-6--2-4-4-2-4--2------
D ---4-------------------------------
G -----------------------------------
B -----------------------------------
e -----------------------------------

---------------------------------------------------

Intro. Aki va junto al bajeo.

   D#m7       C#add2     B
E -----------------------x------------
A -6----------4----------x------------
D --8----------6-6---6s9-9------------
G ---8-8-8--------6------8------------
B ----7-7----------------x------------
e -----------------------x------------

VERSO


   D#m7         C#add2
E -----------------------------------
A ----------------4-------------------
D -4-------------3-------------------
G --6-------------------------------
B -----------------------------------
e -----------------------------------
EN TU SANTUARIO, MI SEÑOR

   A#m7            B
E -----------------------------------
A -4---------4-6-6-------------------
D -----------------------------------
G --6--------------6p4---------------
B -----------------------------------
e -----------------------------------
QUIERO OFRECER MI CORAZON

 D#m7       C#add2
E -----------------------------------
A -----------------------------------
D -4-------------4-------------------
G --6-----------3--------------------
B -----------------------------------
e -----------------------------------
 RECONOCER TU GRAN AMOR

   B
E -----------------------------------
A -2---------------------------------
D -4---------------------------------
G -4---------------------------------
B -----------------------------------
e -----------------------------------
TU PERDON

   D#m7        C#add2
E -----------------------------------
A -----------------------------------
D -4-------------4-------------------
G --6-----------3--------------------
B -----------------------------------
e -----------------------------------
TU SACRIFICIO PROVEYO
     A#m7       B
E -----------------------------------
A -4---------4-6-6-------------------
D -----------------------------------
G --6--------------6p4---------------
B -----------------------------------
e -----------------------------------
EL CAMINO A TU CORAZON
      D#m7       C#add2
E -----------------------------------
A -----------------------------------
D -4-------------3-------------------
G --6-------------6------------------
B -----------------------------------
e -----------------------------------
CON GRATITUD Y ADORACION
B
E -----------------------------------
A -2---------------------------------
D -4---------------------------------
G -4---------------------------------
B -----------------------------------
e -----------------------------------
CANTARE

CORO:
       F#               C#m        E
TU AMOR, AMOR QUE ME DIO LA LIBERTAD
                 B
TU SANGRE ME DIO LA VIDA
       F#            C#m
TU AMOR, CAMINO, VERDAD Y VIDA
E      B
ERES TU

VERSO:

   D#m7         C#add2
E -----------------------------------
A ----------------4------------------
D -4-------------3-------------------
G --6--------------------------------
B -----------------------------------
e -----------------------------------
EN TU SANTUARIO, MI SEÑOR

   A#m7            B
E -----------------------------------
A -4---------4-6-6-------------------
D -----------------------------------
G --6--------------6p4---------------
B -----------------------------------
e -----------------------------------
QUIERO OFRECER MI CORAZON

 D#m7       C#add2
E -----------------------------------
A -----------------------------------
D -4-------------3-------------------
G --6-------------6------------------
B -----------------------------------
e -----------------------------------
 RECONOCER TU GRAN AMOR

   B
E -----------------------------------
A -2---------------------------------
D -4---------------------------------
G -4---------------------------------
B -----------------------------------
e -----------------------------------
TU PERDON

***Aki va rasgueado la guitarra junto con la acustica***

  D#m7        C#add2
TU SACRIFICIO PROVEYO
     A#m7       B
EL CAMINO A TU CORAZON
      D#m7       C#add2
CON GRATITUD Y ADORACION
B
CANTARE

CORO:

***Escuchen muy bien el solo..pa poder sacarlo..nu esta muy dificil..**


SOLO:


E ------------------------------------------
A ------------------------------------------
D --------------------------------------11--
G -s11-13b15r13-13b15r13-11s10-10--10-10----
B -------------------------------14---------
e ------------------------------------------

E ---------------------------------------
A ---------------------------------------
D -11s13--13-----------------------------
G ------11---11-13-11-13b15~~--15r13-11--
B ---------------------------14----------
e ---------------------------------------

E ---------------------------------------
A ---------------------------------------
D -----------------------------------11--
G --13b15r13-13b15r13-11s10-10--10-10----
B ----------------------------14---------
e ---------------------------------------

E -----------------------------------
A -----------------------------------
D -----------------------------------
G -18b20--18b20--19bbb21~~~----------
B ----16-----16-------16-------------
e -----------------------------------

E -----------------------------------
A -----------------------------------
D -----------------------------------
G -----------------------------------
B ---------------------------14------
e -18-18-16-14s13-13h18-13-13--------

E -----------------------------------
A -----------------------------------
D -----------------------------------
G -----------------------------------
B -14h16--16-------------------------
e ------14--14-18b19r18-16-14-16-----

E -----------------------------------------
A -----------------------------------------
D -----------------------------------------
G -----------------------------------------
B ----------------------------14-14s16-16--
e -18-18-16-14s13-13h18-13-13----------14--


CORO:

Outro:

esta parte escuchenla bien pa poder sacarla..

  D#m              C#
E -----------------------------------
A -----------------------------------
D -8------------8------------4-------
G ---8h11-8h11-8----3h6-3h6-3--------
B -----------------------------------
e -----------------------------------

  B             G#m
E -----------------------------------
A -----------------------------------
D -4----------4----------------------
G --4h8-4h8-4------------------------
B ----------------7b9r7b9~--9b11r9---
e -----------------------------------

  D#m            C#        B
E -----------------------------------
A -----------------------------------
D -------------8-----------4s9-------
G -8h11-8h11-8---3h6-3h6-3----8------
B -----------------------------------
e -----------------------------------

Bueno esto es todo..cualquier duda o sugerencia le vuelvo a repetir
[ch]E[/ch] mail. Bendiciones

bggs15@
ATTE: Jorge

Monte Hermon :D
Suggest correction
Give kudos to tab author, rate the tab!
1 2 3 4 5
comments
print report bad tab
guest
You may want to rate the tab now too:
select rating
Wanna post a correction for this tab? Suggest correction