Oops, an error
Loading. Please wait.

Amado Salvador Tab

version 3
version 3

Whole song

48 views 1 this week
no commentswrite comment
1 2 3 4 5
3 more votes to show rating
add to favorites
launch autoscroll
font size
0
reset
how to read this tab
guitar tuner
×
Best way to learn
"Amado Salvador"
Autoscroll
slow
fast
+/-
esc
set tempo
stop
Hola amigos, aqui Nahum, les traigo el solo de Amado Salavador,
hojala y les ayude Dios les bendiga :)

s=slide
b=bend
^=half step
h=hammer


e----------------------------------------------------------------
B------------11-------------13-----------------------------------
G-------8s11-13b(2)---11-10---11-10--------------11----11--11-13-
D-----------------------------------11--11-11h13----13-----------
A----------------------------------------------------------------
E----------------------------------------------------------------


e---------------------------------------------------
B-------------------------11-------------13---------
G-11-13s15-15b^-15-13-11--13b(2)---11-10---11-10----
D------------------------------------------------11-
A---------------------------------------------------
E---------------------------------------------------


e-11------16----14s18--16-14-13--18-13-13-------------14--14-
B-14b(3)--19(3)---------------------------14--14-14s16--16---
G------------------------------------------------------------
D------------------------------------------------------------
A------------------------------------------------------------
E------------------------------------------------------------


e-16s18--18-16-14h16-16--18--16-14-13--18-13-13--------------
B-----------------------------------------------14--14-14s19-
G------------------------------------------------------------
D------------------------------------------------------------
A------------------------------------------------------------
E------------------------------------------------------------

*saludos a los hermanos de bluffton, south carolina,
iglesia Fuente de Salvacion
*si necesitan ayuda mandenme un e-mail nbtep_518@ o
vean mi youtube channel kahled12 thanx
Suggest correction
Give kudos to tab author, rate the tab!
1 2 3 4 5
comments
print report bad tab
guest
You may want to rate the tab now too:
select rating
Wanna post a correction for this tab? Suggest correction