Oops, an error
Loading. Please wait.

Anhelo Tu Presencia Tab

version 1
version 1

Whole song

177 views 1 this week
1 commentread comment
1 2 3 4 5
1 last vote to show rating
add to favorites
launch autoscroll
font size
0
reset
how to read this tab
guitar tuner
×
Best way to learn
"Anhelo Tu Presencia"
Autoscroll
slow
fast
+/-
esc
set tempo
stop
Hola Gente, aqui les presento el intermedio de guitarra de esta
bella ministracion, espero les sirva:


e--------------------------------------------------------------
b--9-9--9s11-11---11s13-13s14-14-14-13-13--11-11-9-9-----------
G--------------------------------------------------------------
D--------------------------------------------------------------
A--------------------------------------------------------------
E--------------------------------------------------------------

e--------------------------------------------------------------
b-----9--9-11-11s13-13-11v----9-8-8-------------8-8-9--11------
G--8--------------------------------8-8--8-8s10----------------
D--------------------------------------------------------------
A--------------------------------------------------------------
E--------------------------------------------------------------

e--------------------------------------------------------------
b--11-9-9-8-9a--9-9-8-8-----------------9-8------------------
G-----------------------10-10s12-----8------10-8----8--------
D---------------------------------10-------------11----------
A--------------------------------------------------------------
E--------------------------------------------------------------

e----------------------------------
b-----9----8-----13------18v-18v---
G----------------------------------
D--10----8----13------18-----------
A----------------------------------
E----------------------------------

Recuerden escuchenla bien primera y luego empiezen a leerla y sacarle
el feeling donde coloca la letra a quiere decir que hay un armonico (a)
y se hace de la siguiente manera:
En Guitarra Electrica es mas facil deben tocar la nota con la plumilla
y la yema del dedo al mismo tiempo a manera de que la nota suene una
octava arriba es cuestion de practica, si no saben como busquen un video
de aprendizaje en youtube, es lo mas facil busquen armonicos para guitarra
Bendiciones...
Saludes a los chavos de alabanza....
Suggest correction
Give kudos to tab author, rate the tab!
1 2 3 4 5
comments
print report bad tab
1 comment total.
0 reply
william.rmcf8 10 Apr 20, 2015 03:50 PM

guest
You may want to rate the tab now too:
select rating
Wanna post a correction for this tab? Suggest correction