Oops, an error
Loading. Please wait.

Anhelo Tu Presencia Tab

version 2
version 2

Whole song

256 views 3 this week
no commentswrite comment
1 2 3 4 5
3 more votes to show rating
add to favorites
launch autoscroll
font size
0
reset
how to read this tab
guitar tuner
×
Best way to learn
"Anhelo Tu Presencia"
Autoscroll
slow
fast
+/-
esc
set tempo
stop
Esta es una idea del intro con teclado:

e|-11-13--------13-15---------16-18-16-------18-20-18---------
b|---------9------------11-------------16-------------18------
G|------------------------------------------------------------
D|------------------------------------------------------------
A|------------------------------------------------------------
E|------------------------------------------------------------
_________________________________________________________________
_________________________________________________________________
Estos son los arreglos en el coro, antes de entrar al intermedio
(o solo), en el min. 2:19

e|----------------------
b|----------------------
G|--8-------10----------
D|----------------------
A|----------------------
E|----------------------

e|-------------|-----------|--------|----------------
b|-------------|------8-8--|--------|---8s9----------
G|-------------|-----------|--------|--------10------
D|--8s10---10--|--8--------|---6----|----------------
A|---------8---|-----------|---6----|----------------
E|-------------|-----------|---4----|----------------

en el min 2:37
e|-------------|-----------|--------|----------------
b|---------9-9-|--8--------|--------|----------------
G|-------------|-----------|--------|---6------------
D|--8s10-------|--------8--|---6----|---6------------
A|-------------|--------6--|---6----|---4------------
E|-------------|-----------|---4----|----------------

en el min. 2:50
e|-------------|-------------|--------|--------------
b|--------9-9--|--9s11-------|--------|--------------
G|-------------|--------8-8--|--------|---6----------
D|--10---------|-------------|----6---|---6----------
A|-------------|-------------|----6---|---4----------
E|-------------|-------------|----4---|--------------

_________________________________________________________________
_________________________________________________________________
Este es el intermedio, que empieza en el min. 3:03

e|----------------------------------------------------
b|----------------------------------------------------
G|-1--1--1s3--3--3-----3s5--5-----6--5-5---3-3---1-1--
D|----------------------------------------------------
A|----------------------------------------------------
E|----------------------------------------------------

e|-----------------------------|------------------------|-----------
b|----9--9--9s11--11s13--13s11-|-9--8-8-----------------|-8-9-11-11-
G|-8---------------------------|--------8--8--8-8s10-10-|-----------
D|-----------------------------|------------------------|-----------
A|-----------------------------|------------------------|-----------
E|-----------------------------|------------------------|-----------

en el min. 3:28 (son armonicos artificiales, pero yo no los uso;
mejor uso notas altas)

e|--16-16-15-16v-|--16-16-15-15------------
b|---------------|-------------------------
G|---------------|---------------10-10s12--
D|---------------|-------------------------
A|---------------|-------------------------
E|---------------|-------------------------

e|------------------------------
b|----------9-8-----------------
G|------8-------10-8-6--6s8-----
D|-10---------------------------
A|------------------------------
E|------------------------------

e|---------|---------|---------|-----------------
b|---------|---------|---------|------18b--18v---
G|-5--5s13-|-3--3s12-|-8--8s17-|-13--------------
D|---------|---------|---------|-----------------
A|---------|---------|---------|-----------------
E|---------|---------|---------|-----------------

s= slide (deslizar el dedo de una nota a otra, a través del diapasón)

b= bend (estirar hacia arriba la cuerda, "subir" la nota,
         de tal forma que suene como la nota del traste siguiente)

v= vibrato (mover el dedo arriba-abajo al tocar un nota)


Luego sacaré y subiré los demás instrumentales de la canción.

Lo bueno de esta tablatura es que la canción no es un solo rápido;
solo necesitan un poco de paciencia para sacar esta parte de la
canción, pero será facilísimo si lo hacen mientras estudian la tab y
escuchan simultáneamente la pista.

Si conocen alguna canción que sea buenísima para sacarla bien en
guitarra eléctrica y quieran que los ayude, o que me la recomienden,
o simplemente para platicar sobre la guitarra, agrégenme

saviour_king@   Solo diganme que me conocieron en lacuerda;
                        no soy payaso ni nada de eso :3

DLB
Suggest correction
Give kudos to tab author, rate the tab!
1 2 3 4 5
comments
print report bad tab
guest
You may want to rate the tab now too:
select rating
Wanna post a correction for this tab? Suggest correction