Oops, an error
Loading. Please wait.

Cantamos Aleluya Bass

version 1
version 1

Whole song

122 views 1 this week
no commentswrite comment
1 2 3 4 5
2 more votes to show rating
add to favorites
launch autoscroll
font size
0
reset
guitar tuner
×
Best way to learn
"Cantamos Aleluya"
Autoscroll
slow
fast
+/-
esc
set tempo
stop
buenas, les voy a enseñar este tema que esta muy bueno en el bajo!
 no es tan dificil..

Intro:
G|---------------------------------
D|-11-9----------9-----------------
A|------12-11-12---9(4)-7(4)-5(4)-- X2
E|---------------------------------

Verso: Por tus obras....(esta parte es media trabada escuchenla!)
G|------------------------------
D|------------------------------
A|-9(5)--7(5)-5(5)--5(5)-------- X4
E|------------------------------

Coro: Cantamos aleluya.....
G|----------------------------------------
D|----------------------------------------
A|-----------------5(4)----------5(8)----- X2
E|--5(4)-4(4)--2(4)-----5(4)-4(4)---------

Intermedio:
G|---------------------------------------------------
D|-------------------11-9----------9-----------------
A|9(4)-7(4)-5(4)----------12-11-12---9(4)-7(4)-5(4)--
E|---------------------------------------------------

despues hace asi:
Verso
Coro
Break:
G|------------------------------------------------------
D|----------------------22---------------------22-------
A|----------44-22-44-55-------------44-22---------------
E|-22-44-55----------------22-44-55-------55-44---------

G|------------------------------------------------------------
D|----------------------22------------------------------------
A|----------44-22-44-55-------------44-22----55-44-------55---
E|-22-44-55----------------22-44-55-------55-------555-44-----

SOLO GUITARRA:
G|------------------------------------
D|------------------------------------
A|------------------------------------ x3
E|-10(6)s-2(6)-s-4(6)-s9(6)-----------

Coro x3
Y el final es asi:
G|-------------------------------------------------------
D|-------------------------------------------------------
A|-------------------------------------------------------
E|--7(16)-2(16)-5(16)-9(16)-7(16)-2(16)-5(16)-9(16)-10---


saludos de argentina y espero que les ayude!
cualquier sugerencia/ayuda este es mi mail:
bassesmen@
Suggest correction
Give kudos to tab author, rate the tab!
1 2 3 4 5
comments
print report bad tab
guest
You may want to rate the tab now too:
select rating
Wanna post a correction for this tab? Suggest correction