Oops, an error
Loading. Please wait.

Cantamos Aleluya Tab

219 views 1 this week
no commentswrite comment
1 2 3 4 5
3 more votes to show rating
add to favorites
×
Save as Personal and add changes to this tab that will be seen only by you. Learn more ›
×
You can save this tab as Personal to edit and correct it or add notes. All changes will be seen only by you. Learn more »
save as personal
new!
launch autoscroll
font size
0
reset
how to read this tab
guitar tuner
Autoscroll
slow
fast
+/-
esc
set tempo
stop
Intro F#m - E - D

Riff bajo
E---7s9-7-5-4-5-7--2--- Lo que hace el bajo cuando esta en D
A----------------------
D----------------------
G----------------------

verso 1)

F#m          E            D
    Por tus obras, por tu bien
       D            F#m
por tu amor y tu poder
       E          D      D
porque tu nunca cambias

F#m        E           D
    Tu grandeza, Tu gloria
      D          F#m
Tu bondad nos alcanza
        E           D
por que nadie es como Tu
        C#m
Tu eres Rey


CORO:
A        E/G#    F#m   D
Cantamos Aleluya,      Aleluya
A        E/G#       D    Riff2
Cantamos Aleluya al Rey      2x

Riff2
    D
E--------
A--------  Esto lo hace al final de la primera vez que hace el coro
D--------  ..Cantamos aleluya al Rey y hace el riff que suena como
G---9b11-  [ch]B[/ch] se tocaran 2 dos cuerdas al mismo tiempo en las misma
b---7----  nota, aqui tocas las 2 cuerdas al mismo tiempo pero en la
e--------  cuerda de sol haces bend del 9 traste al 11. suena pinta :)
           pero es rapido, ponele oido y lo vas a escuchar.

F#m - E - D

(se repite verso 1)

(CORO)

Puente (Con  Guitarra Electrica estos son acordes de poder)
F#5 G#5    A5      C#5
    El vencio la muerte
B5  C#      D5      E5
    por los siglos reina
F#5 G#5    A5     C#5       B5-A5-G#5-E5
    Sea la gloria por siempre

F#5 G#5    A5   C#5
    Extendio su mano
B5  C#5  D5     E5
    Para darnos vida
F#5 G#5    A5     C#5       B5-A5-Riff1
    Sea la gloria por siempre

Riff 1
    G#5        E5      D5
E----------|---------|----
A----------|---------|---
D--------7-|---------|----
G--7-6-4---|---7-6-4-|-7--
b----------|-5-------|----
e----------|---------|----

Notas antes del solo
D - F#m - A - C#m

Notas Solo de Guitarra
D - F#m - A - C#m
D - F#m - A - C#m - E

Solo de Guitarra
        D                    F#m                    A             C#m
E-----------------|----------------------|----------------------|--------
A-----------------|----------------------|----------------------|--------
D-----------------|----------------------|----------------------|--------
G-----------------|11(10)----------------|11(10)----------------|--------
b-----------------|------9(2)-10(2)-12(2)|------9(2)-10(2)-12(2)|9(16)vb-
e-12(8)-10(4)-9(4)|----------------------|----------------------|--------
        D                    F#m                    A             C#m
E-----------------|----------------------|----------------------|------
A-----------------|----------------------|----------------------|------
D-----------------|----------------------|----------------------|------
G-----------------|11(10)----------------|11(10)----------------|------
b-----------------|------9(2)-10(2)-12(2)|------9(2)-10(2)-12(2)|-9(2)-
e-12(8)-10(4)-9(4)|----------------------|----------------------|------
        C#m              E
E-------------------|--------
A-------------------|--------
D-------------------|--------
G-------------------|--------
b--10(2)-12(2)------|--------
e--------------9(2)-|-12(7)--

Coro

Outro
Es lo mismo que el solo pero mas abajo

        D                F#m                    A               C#m
E---------------|---------------------|---------------------|----------
A---------------|---------------------|---------------------|----------
D---------------|-4(10)-6(2)-7(2)-----|-4(10)-6(2)-7(2)-----|-6(16)vibr
G------7(4)-6(4)|-----------------4(2)|-----------------4(2)|----------
b-5(8)----------|---------------------|---------------------|----------
e---------------|---------------------|---------------------|----------
        D                F#m                     A             C#m
E---------------|--------------------|--------------------|----------
A---------------|--------------------|--------------------|----------
D---------------|4(10)-6(2)-7(2)-----|4(10)-6(2)-7(2)-----|6(2)-7(2)-
G------7(4)-6(4)|----------------4(2)|----------------4(2)|----------
b-5(8)----------|--------------------|--------------------|----------
e---------------|--------------------|--------------------|----------
                C#m                  D
E---------------------------------|-----
A---------------------------------|-----
D---------------------------7(2)--|--4--
G--4(2)-6(2)------7(2)-6(2)-------|-----
b------------5(2)-----------------|-----
e---------------------------------|-----

o si lo tocan como el solo lo terminan asi, solo la ultima parte

                      C#m                         D
E----------------------------------------------|------
A----------------------------------------------|------
D----------------------------------------------|------
G----------------------------------------------|--11--
b--9(2)-10(2)-12(2)----------------------10(2)-|------
e-------------------9(2)-12(2)-10(2)-9(2)------|------


Fin D

*5(8) quiere decir el quinto traste 8 veces, el numero entre parentesis
es el numero de veces que se toca la nota, noten que en cada tiempo del
acorde del solo la cuerda se toca 16 veces, 16 veces en D, 16 veces en
F#m, etc.

Dios los Bendiga y salu2 al ministerio
de alabanza Hefzi Ba Tegucigalpa Honduras.
Dudas a Joscastillo19@
Suggest correction
Give kudos to tab author, rate the tab!
1 2 3 4 5
comments
print report bad tab
guest
Wanna post a correction for this tab? Suggest correction