Oops, an error
Loading. Please wait.

Cantamos Aleluya Bass

version 2
version 2

Whole song

60 views 1 this week
no commentswrite comment
1 2 3 4 5
3 more votes to show rating
add to favorites
launch autoscroll
font size
0
reset
guitar tuner
×
Best way to learn
"Cantamos Aleluya"
Autoscroll
slow
fast
+/-
esc
set tempo
stop
Intro:
G|---------------------------------
D|---------------------------------
A|-14-15-14-12-11-12-14-9(4)-7(4)-5(4)-- X2
E|---------------------------------

Verso: Por tus obras por tu fe??
(esta parte es un poco pausada en el cambio de notas)
G|------------------------------
D|------------------------------
A|-9(4)--7(4)-5(4)--5(4)-------- X4
E|------------------------------

Antes de entrar al coro quédense marcando el tiempo en C#
Coro: Cantamos aleluya.....
(tienes que cambiar a las notas con el mismo ritmo)
G|----------------------------------------
D|----------------------------------------
A|----------------------------------------
E|--5(6)-4(6)-2(6)-10(6)-5(6)-4(4)-10(10)-X2

Intermedio, volvemos hacer casi lo mismo del intro
G|---------------------------------------------------
D|---------------------------------------------------
A|9(4)-7(4)-5(4)-14-15-14-12-11-12-14-9(4)-7(4)-5(4)--
E|---------------------------------------------------

Luego sigue la parte: el venció a la muerte por siglos reina??
G|---------------------------------------------------
D|---------------------------------------------------
A|----------44----44-55-77-----------44--------------
E|-22-44-55----77-----------22-44-55----77-55-44-22--

G|---------------------------------------------------------------
D|----------------------------------------------------------------
A|----------44----44-55-77-----------44----------5-4-----7-4---5(S)
E|-22-44-55----77-----------22-44-55----77-55-44-----7-5-----5----


Esta es la parte donde suena el solo de la
guitarra es importante seguir el ritmo de la misma y de la batería.
(Después de repetir por 3 veces esta parte te quedas en ?E? pero
lleven el mismo ritmo)
G|------------------------------------
D|------------------------------------
A|-5(8)s-------------4(8)s------------- x3
E|-------2(8)s-5(8)s-------------------

Nota
Como lo explique anteriormente se quedan en ?E? y
vuelven Hacer la parte del coro y terminan con el solo de guitarra


Este es mi correo: Luis_ms92@ por si
tienen alguna duda fue lo mejor que pude explicar
espero que les sea de mucha bendición
Suggest correction
Give kudos to tab author, rate the tab!
1 2 3 4 5
comments
print report bad tab
guest
You may want to rate the tab now too:
select rating
Wanna post a correction for this tab? Suggest correction