Oops, an error
Loading. Please wait.

Cristo Eres Rey Bass

28 views 1 this week
no commentswrite comment
1 2 3 4 5
3 more votes to show rating
add to favorites
×
Save as Personal and add changes to this tab that will be seen only by you. Learn more ›
×
You can save this tab as Personal to edit and correct it or add notes. All changes will be seen only by you. Learn more »
save as personal
new!
launch autoscroll
font size
0
reset
guitar tuner
Autoscroll
slow
fast
+/-
esc
set tempo
stop
Afinacion: G D A E B

  Intro    (0:15)     X16           X4        X4        X4         X4
G |-------|---------------|-----------|---------|---------|----------|
D |-------|---------------|-----------|---------|---------|----------|
A |-------|--8-8-8-8------|-----------|---------|-8-8-8-8-|----------|
E |--1----|---------------|-----------|-6-6-6-6-|---------|-8-8-8-8--|
B |-------|---------------|--9-9-9-9--|---------|---------|----------|

  Coros   X9             X4
G |----------|--------------|----------------------------------------
D |----------|--------------|----------------------------------------
A |-8-8-8-8--|--------------|----------------------------------------
E |----------|-10-10-10-10--|-6-6---6-5---3----3-3-3-3-3-3-3-8-8?-8-8
B |----------|--------------|----------------------------------------

G |--------------------------|
D |--------------------------|
A |--------------------------|
E |-8-8--8-8-8-8-8-8-8-------|
B |--------------------------|

  Versos
G |---------------------------------------------------------------
D |---------------------------------------------------------------
A |---------8------------10--------------12-----------------------
E |--6----6---6---8----8----8--------------------10---10-10---10--
B |-----------------------------10----10----10--------------------

G |---------------------------------------------------------------
D |---------------------------------------------------------------
A |--------8------------10-------------------8s10-8\----------8---
E |-6----6---6---8----8----8---------------------------6----6---6-
B |----------------------------6---6-6---6------------------------

G |---------------------------------------------------------------
D |---------------------------------------------------------------
A |---------10--------------12------------------------------------
E |--8----8----8--------------------10---10-10---10----6---6--6-6-
B |----------------10----10----10---------------------------------

G |----------------------------------------------|
D |----------------------------------------------|
A |----------------------------------------------|
E |-3---3-3---3-3-3----8---8-8-8-8-8-8---8-8-----|
B |----------------------------------------------|

Todo se repite igual.
A Continuación los adornos y puentes en tiempo exacto.

  (3:35)
G |----------------------------------------------------------------
D |----------------------------------------------------------------
A |----------------------------------------------------------------
E |-6---6--6-6-6---3---3-3---3-3-3---8---8-8-8-8-8---8---8-8--8-8-8
B |----------------------------------------------------------------


G |-------------------------------------------------------|
D |-------------------------------------------------------|
A |-------------------------------------------------------|
E |---6-----3-----8-8---8-8-8---10---10-10-10-10-10-10----|
B |-------------------------------------------------------|

  (3:48) Puente durante el solo de guitarra
G |---------------------------------------------------------------
D |---------------------------------------------------------------
A |-10---10-10-10-10-10-10-10-10-10-10-10-10-10-10-10-10-10-10-10-
E |---------------------------------------------------------------
B |---------------------------------------------------------------

G |---------------------------------------------------------------
D |---------------------------------------------------------------
A |--7---7-7-7-7-7-7-7-7-7-7-7-7-7-7-7----------------------------
E |---------------------------------------8-8---8-7--5---5-5-5-5-5
B |---------------------------------------------------------------

G |-----------------------------------|
D |-----------------------------------|
A |----5---5-5-5-5-5-5-5-5-5-5-5-5----|
E |-5---------------------------------|
B |-----------------------------------|

    Coros   X9             X4    (Aumenta i tono completo)
G |-----------|-------------|-----------------------------------------
D |-----------|-------------|-----------------------------------------
A |10-10-10-10|-------------|-----------------------------------------
E |-----------|12-12-12-12--|-8-8---8-7---5----5-5-5-5-5-5-5-10-?10-10
B |-----------|-------------|-----------------------------------------

                                    (0:11) Final
G |---------------------------------|-----------------|
D |---------------------------------|-----------------|
A |---------------------------------|-----------------|
E |-10----10?-10-10-10-10-10-10-----|---3-3-------3---|
B |---------------------------------|-----------------|
Suggest correction
Give kudos to tab author, rate the tab!
1 2 3 4 5
comments
print report bad tab
guest
Wanna post a correction for this tab? Suggest correction