Oops, an error
Loading. Please wait.

De Los Montes Bass

56 views 1 this week
no commentswrite comment
1 2 3 4 5
3 more votes to show rating
add to favorites
launch autoscroll
font size
0
reset
guitar tuner
Autoscroll
slow
fast
+/-
esc
set tempo
stop
                      ESTROFA

Al principio c toca el bajo 2 veces, en cada golpe

G ----------------------------------------------
D ----------------------------------------------
A --5-------------5-----------------------------
E ----------------------------------------------

Estrofa


G ---------------
D ---------------
A --5------------
E ---------------

Esa nota A5 se hace repetidas veces
Se toca exactamente junto con el bombo
Cuantas 4 veces el 1 2 3, ese es el tiempo
Q dura esa nota sin parar

Luego viene así

G -----------------------
D -----------------------
A -2---------------------
E ----3--5---------------

El A2 dura el tiempo de 1 2 3 4, al igual q E3
El E5 dura el doble
Luego repites la primera estrofa
Solo q esta vez el 1 2 3 4 lo cuentas 3 veces
Y luego este punteo

G ---------------
D ---------------
A --5-7-9-4-5-7--
E ---------------

Y viene otra vez:

G -----------------------
D -----------------------
A -2---------------------
E ----3--5---------------


                        CORO

Se comienza a tocar desde ?Montes?
Exactamente en Mo

G ----------------
D ----------------
A --5----4----2---
E ----------------

El A5 y el A4 duran 4 tiempos cada uno
Osea cuentas 1 2 3 4 por cada uno
El A2 es el doble, cuentas 1 2 3 4...
Dos veces en la misma A2

Luego:

G -----------------------
D -----------------------
A -2----------------------
E ----2--3--5-------------

Esta parte es 4 tiempos por cada nota
Se repite dos veces
Luego otra vez la estrofa

Luego en la 2da introducción
No c toca el bajo, solo hace dos ?s?
Creo q se llama slide
El 1er después de 8 tiempos
El 2do 4 tiempos después del primero


G --------------
D --------------
A ?7s5----------
E ----------7s5-


Luego sigue la 2da estrofa q ya esta escrita
Sólo que el ?punteo? es al revés.

G --------------
D --------------
A -9-7-5-7-5-4--
E --------------


              INTERMEDIO (Aleluya)

Aleluya, comienzas a tocar desde Lu
Un solo golpe por nota, 4 tiempos cada nota

G ----------------
D ----------------
A ----------2--2--
E --3---0---------

G --------------------
D --------------------
A --------------------
E --3---0---5--5------

Se hace dos o tres veces

Todo esto es una gran base
Los silencios son fáciles
Suggest correction
Give kudos to tab author, rate the tab!
1 2 3 4 5
comments
print report bad tab
guest
You may want to rate the tab now too:
select rating
Wanna post a correction for this tab? Suggest correction