Oops, an error
Loading. Please wait.

Del Cielo Tab

20 views 1 this week
no commentswrite comment
1 2 3 4 5
3 more votes to show rating
add to favorites
launch autoscroll
font size
0
reset
how to read this tab
guitar tuner
×
Best way to learn
"Del Cielo"
Autoscroll
slow
fast
+/-
esc
set tempo
stop
Un saludo pal loco de Jorge Gutierrez, que se le estima :P
y mucho animo que con Dios todo es posible.

Intro: Fm - Ab - Bbm - Cm7 //

Verso:
Fm     Ab   Bbm     Cm7
Si me amas, guarda mi palabra
Fm     Ab   Bbm      Cm7
no se turbe, tu corazon cree en mi
Fm      Ab    Bbm    Cm7
soy el camino, verdad y vida para ti
Fm      Ab    Bbm    Cm7
mi paz te dejo, consolador te enviare// -

 Cm C# - Fm Cm Eb, vuelve al verso.
 Cm Eb

Pre Coro:
Fm     Eb       C#
Mi espiritu en ti derramare
C#        Eb      Fm       Cm C#
y en tus hijos visiones yo pondre

Coro:
Eb   Fm   C#                     Eb
Del cielo viento recio que soplo
    Fm  C#                       Eb
llenando todo mi ser con tu amor
    Fm  C#                  Eb
tu fuego mi pecado consumio
    Fm         C#
y hoy puedo cantar.

Acompañamiento del solo: Fm Cm C# - Fm Cm Eb
Solo:
e/------------------------------------------------------------/
B/------------------------------------------------------------/
G/-------5-5-5-6x10-------5-5-5-8x10-/-10-10-10----------6x10-/
D/-3-3-3------------3-3-3-----------------------10-10-10------/
A/------------------------------------------------------------/
E/------------------------------------------------------------/

e/------------/--13b--/--15b----------------------------------/
B/------------/--16b--/--18b----------------------------------/
G/-10x8--12x8-/-------/---------------------------------------/
D/------------/-------/---------------------------------------/
A/------------/-------/---------------------------------------/
E/------------/-------/---------------------------------------/

Coro x2

  Fm        Ab        Bbm         Cm7
//mi espiritu derramare sobre tus hijos lo pondre//


Seb@stian M@rtinez
Ministerios Vino Nuevo
Suggest correction
Give kudos to tab author, rate the tab!
1 2 3 4 5
comments
print report bad tab
guest
You may want to rate the tab now too:
select rating
Wanna post a correction for this tab? Suggest correction