Oops, an error
Loading. Please wait.

Digno De Honor Tab

version 1
version 1

Whole song

127 views 1 this week
no commentswrite comment
1 2 3 4 5
3 more votes to show rating
add to favorites
launch autoscroll
font size
0
reset
how to read this tab
guitar tuner
Autoscroll
slow
fast
+/-
esc
set tempo
stop
Help us to improve Ultimate-Guitar.com Take our survey!
×
E-----7-----7----7-----7-----7----7--9-------------------------------
B--7-----7-----7----9-----9-----9-------12--10--12-10-12-------------
G---------------------------------------------------------11v--------
D--------------------------------------------------------------------
A--------------------------------------------------------------------
E--------------------------------------------------------------------


E-----7-----7----7-----7-----7----7--9--------------------12--11-----
B--7-----7-----7----9-----9-----9-------12--10--12-10-12-------------
G--------------------------------------------------------------------
D--------------------------------------------------------------------
A--------------------------------------------------------------------
E--------------------------------------------------------------------


B                   E
una alabanza un clamor
A        F#m         B
la creacion alza su voz
B                        E
es como un rio de adoracion
A          F#m            B
que fluye de nuestro corazon.

coro
A           C#m   B
santo, eres santo
A    E        B           A
todopoderoso digno del honor
A           C#m   B
digno, eres digno
A          E                 B          A
todos los pueblos cantan que tu eres señor.


solo
A - C#m - B - A - E - B - A

CORO

A           C#m   B
santo, eres santo
A    E        B           A
todopoderoso digno del honor
A           C#m   B
digno, eres digno
A          E                 B          A
todos los pueblos cantan que tu eres señor.
F#m        C#m               B          A
todos los pueblos cantan que tu eres señor.


aki les dejo el intro de este tema es super bueno ojala les sea de
bendicion cual quier duda escribanme a djosito@ xau
bendiciones aaaaaa y saludos a los xikos de tiempo de gloria
Suggest correction
Give kudos to tab author, rate the tab!
1 2 3 4 5
comments
print report bad tab
guest
You may want to rate the tab now too:
select rating
Wanna post a correction for this tab? Suggest correction