Oops, an error
Loading. Please wait.

Hossana Tab

version 1
version 1

Whole song

678 views 1 this week
no commentswrite comment
1 2 3 4 5
2 more votes to show rating
add to favorites
launch autoscroll
font size
0
reset
how to read this tab
guitar tuner
Autoscroll
slow
fast
+/-
esc
set tempo
stop
Help us to improve Ultimate-Guitar.com Take our survey!
×
Intro

 E--------3-2-----------------------------------
 B-0-0-0------------7-5--------5-3----0-0-0-2-3-
 G------------2-2-2------2-2-2------------------ x2

>>>(Bm-A-f#-G) x2

Levantamos un clamor
por sanidad y redención     E-----7-
Muestranos lo que Tu ves    B---7---
los secretos de Tu corazón. G-7-----

Un pueblo unido pide hoy
Tu libertad y salvación
Armanos con Tu valor
lo que deseamos es revolución.

G                         A             G
Que el cielo se parta en dos... inundanos
                        A                 Bm
en el desierto broten rios... vida sopla hoy

>>>tip: varios de los acordes que se escuchan como agudos en
la eléctrica se tocan en : posición del acorde en cejilla
en las tres primeras cuerdas ... analicen esto listo??


Coro:
Bm                        D
// Hosanna al Rey de Salvación
                     Em
Hosanna al Dios Altisimo
          G            A             Bm
Hosanna, Jesucristo, Jesucristo es Rey //

>>>piano


>>>(estrofa 1)

E------------------------11-14-15-(19-19../17x4
B-9-11/12--(12-12../10)x4----------------------

(las que están ?x4?rapidísimo la primera nota y un
adorno con la otra nota, escuchen bien la canción)

>>>(estrofa 2)
D------5-5-5-4-4-----------------------------------------------
A---------------------9-9-9--7-7------7-7-7--5-5------4-4-4-5-7
E-7-7-7----------5-5-5-----------5-5-5-----------7-7-7---------x2

>>>(Interludio)


>>>(Coro)

Solo:

E-12-12-12-12-12-12-12-10-10-10-------------
B--------------------------------10-10-10-10

E -12-12-12-12-12-12-12-10-10-10-------------
B--------------------------------10-10-10-10

E -12-12-12-12-12-12-12-10-10-10-------------
B--------------------------------10-10-10-10

E -14-14-14-14-14-12-14-15-14-12-12-10-

E -12-12-12-10-10-10-9-9-9----------------
B-------------------------7-7-7-8-8-10-10

E -12-12-12-10-10-10-9-9-9-10-10-12-12-12-12

E -14-14-14-14-14-14-14-12-14-16-16-16-16-16-16-

E -13-16-18-18-18-18-18-18-18---12-10/9-10-12--14/15/14/15/14


>>>(acordes del coro) Hossana, hossana, hossana......... fin= Bm

Ufff cheverisima .... despacio muchachos.. primero escúchenla varias
veces, luego miren solo la guitarra y empiecen a sacarla por partes.
Si se afanan se van a "deprimir" y se ven a cansar ...despacio
muchachos .. paciencia ...
Saludes a la iglesia Luz para el mundo y ministerio internacional
de adoración en Bogotà Colombia)
Suggest correction
Give kudos to tab author, rate the tab!
1 2 3 4 5
comments
print report bad tab
guest
You may want to rate the tab now too:
select rating
Wanna post a correction for this tab? Suggest correction