Oops, an error
Loading. Please wait.

Hossana Tab

version 2
version 2

Whole song

251 views 1 this week
no commentswrite comment
1 2 3 4 5
3 more votes to show rating
add to favorites
launch autoscroll
font size
0
reset
how to read this tab
guitar tuner
×
Best way to learn
"Hossana"
Autoscroll
slow
fast
+/-
esc
set tempo
stop
Intro: Bm-A-F#m-G
Este es el intro en teclado
acomodado en guitarra
asi la toco en mi igle se oye bien
Dios les bendiga!

e---------------------------------------
B-------8-8-8-7-7--------7-7-7-5-5------
G---------------------------------------
D-9-9-9------------7-7-7----------------
A---------------------------------------

e---------------------------------------
B-------5-5-5---------------------------
G-------------7-7-------6-6-6-7-9-------
D-7-7-7-----------9-9-9-----------------
A--------------------------------------- X4


Verso:
Bm          A
  Levantamos un clamor
F#m              G
  Por sanidad y Redención
Bm                 A
  Muéstranos lo que tú ves
F#m                  G
  Los secretos de tu corazón

Bm                A
  Un pueblo unido pide hoy
F#m               G
  Tu libertad y salvación
Bm           A
  Ármanos con tu valor
F#m                    G
  Lo que deseamos es revolución

Puente:
G                           A
  Que el cielo se parta en dos
           G                         A
  Inúndanos  En el desierto broten ríos

  Vida sopla hoy

Coro
 Bm                          D
// Hossana al Rey de Salvación
                          Em
   Hossana al Dios Altísimo

   Ho-ssa-na
   G           A             Bm
   Jesucristo, Jesucristo es REY //

Verso
Puente
Coro
Solo: G - A
      G-A-G/B-A/C#   x2 Estos son los acordes que acompañan

e----------------------------------------------
B-10/17-17-17-17-17-17-17-15-15-15-10--10-10-----x3
G----------------------------------------------

e----------------------------------------------
B-10/19-19-19-19-19-19-19-17-19b-17-17-15-10---
G----------------------------------------------

e-12-12-12-10-10-10-9-9-9----------------------
B----------------------------------------------
G-------------------------11-11-11-12-12-12-14-

e-12-12-12-10-10-10-9-9-9-10-10-12-12-10-12-14-14-14-14-14-14------
B------------------------------------------------------------------
G------------------------------------------------------------------

e-12-14-17-17-17-17-17-17-14-17-19-19-19-19-19-19-
B-------------------------------------------------
G-------------------------------------------------

e-------------------------------
B-19b-17-17-15-10-19b.....------
G-------------------------------


G       A         G    A      G/B   A/C#
 Hossana, hossana, hossana al rey        x4

  Coro x2

b= estirar la cuerda
b......= estirar la cuerda varias veces
/= deslise

SALUDOS A OAXACA
A LA IGLESIA COMUNINDA CRISTIANA NUEVA VIDA
AL PASTOR TADEO Y "PRESENCIA DE DIOS"
GRUPO DE ALABANZA
SERGIO
YESSI
JAIR
LAURA
FERNANDO
Y YO!!!
AMEN!!!!!!!!!!
Suggest correction
Give kudos to tab author, rate the tab!
1 2 3 4 5
comments
print report bad tab
guest
You may want to rate the tab now too:
select rating
Wanna post a correction for this tab? Suggest correction