Oops, an error
Loading. Please wait.

Hossana Tab

version 3
version 3

Whole song

288 views 1 this week
no commentswrite comment
1 2 3 4 5
3 more votes to show rating
add to favorites
launch autoscroll
font size
0
reset
how to read this tab
guitar tuner
×
Best way to learn
"Hossana"
Autoscroll
slow
fast
+/-
esc
set tempo
stop
Intro

 B-------8-8-8--7-7---------7-7-7--5-5---------5-5-5-----------------------
 G---------------------------------------------------7-7---4-4-4--6-6-6--7-9
 D)9-9-9------------7-7-7---------------7-7-7------------------------------- x4


Bm              A
Levantamos un clamor
  F#m            G
por sanidad y redención     B-----7-
Bm             A
Muestranos lo que Tu ves    G---7---
  F#m               G
los secretos de Tu corazón. D-9-----
(Bm-F#m-A-G)
Un pueblo unido pide hoy
Tu libertad y salvación
Armanos con Tu valor
lo que deseamos es revolución.


 en el pre coro las notas se tocan de esta forma: Sol: B)-8  la: B)-10


  G                       A                            G)-7      G)-9
Que el cielo se parta en dos... inundanos              D)-5      D)7
                        A                 Bm
en el desierto broten rios... vida sopla hoy


Coro:
las notas se tocan de esta manera   (G y A de la misma forma que el pre-coro)
[ch]B: B)-12   [ch]D: B[/ch])-15  [ch]E[/ch]: B[/ch])-12
    G)-11       G)-14      G)-9
    D)-9        D)-12      D)-9


Bm                        D
// Hosanna al Rey de Salvación
                     Em
Hosanna al Dios Altisimo
          G            A             Bm     F#5
Hosanna, Jesucristo, Jesucristo es Rey //


estrofa1: Bm-A-F#-G SE HACEN ASI
[ch]B: D)-4   [ch]A: A)-7  [ch]F#[/ch]: A[/ch])-4    [ch]G[/ch]: A[/ch])-5
    A)-2       E)-5       E)-2         E)-3

estrofa2: se hace la intro dos veses

 B)-------8-8-8--7-7---------7-7-7--5-5---------5-5-5-----------------------
 G)---------------------------------------------------7-7---4-4-4--6-6-6--7-9
 D)9-9-9------------7-7-7---------------7-7-7-------------------------------X2


SOLO:


E)--12----(x6)--------------------------
B)--15b17-(x6)---15-15-15-15--12-12-12-12 X3

E)-14---(x4)---18p14--14b15r14--12
B)-17b19(x4)----------------------15
G)-----------------------------------13

E)
B)-15b17(x3)--15-15-15--14-14-14--------------------
G)------------------------------\11-11-11--13-14-15

E)--------------------------------------------15(x6)---15-18(x6)---18-18/20-(x7
B)-15b17(x3)--15-(X3)-14(x3)-15-15/17-17--16-18------18---------16------------
G)----------------------------------------------------------------------------

final:
E)------14b15r14--12
B)-------------------15--15b16r15--13
G)-----------------------------------14--11v


bueno espero que les halla gustado esta es la primera vez que hago una
 transcripcion este tema lo tocamos en mi iglesia y es de gran
 bendicion porque la palabra se cumple
cuando dice que dios esta en medio de la alabanza de su pueblo

OTRA VEZ ESPERO QUE LES HALLA GUSTADO....
CUALQUIER DEDA MANDEN MENSAJES AL FACEBOOK:


que dios los bendiga y SALUDOS DESDE LA IGLESIA ESPERANZA DE VIDA
 LA MATANZA,
BUENOS AIRES ARGENTINA
Suggest correction
Give kudos to tab author, rate the tab!
1 2 3 4 5
comments
print report bad tab
guest
You may want to rate the tab now too:
select rating
Wanna post a correction for this tab? Suggest correction