Oops, an error
Loading. Please wait.

Ilumina Tab

version 1
version 1

Whole song

56 views 1 this week
no commentswrite comment
1 2 3 4 5
3 more votes to show rating
add to favorites
launch autoscroll
font size
0
reset
how to read this tab
guitar tuner
×
Best way to learn
"Ilumina"
Autoscroll
slow
fast
+/-
esc
set tempo
stop
Intro: [ch]Dm [ch]F[/ch] LAm[/ch] [ch]C[/ch] (x3)
[ch]Bb [ch]F[/ch] [ch]Gm[/ch] [ch]E[/ch] [ch]Dm[/ch] [ch]C[/ch] LAm[/ch]
[ch]Bb [ch]F[/ch] [ch]Gm[/ch] [ch]E[/ch] LAm[/ch] [ch]Dm[/ch]

E|---------------------------------------------------------
B|---------------------------------------------------------
G|---14--14--14--14--14--14--14--14--12--12--12--12--12----
D|-17--17--17--17--15--15--15--15--14--14--14--14--14--14--
A|---------------------------------------------------------
E|---------------------------------------------------------

E|------------|
B|------------|
G|------------|
D|---17--17---|
A|-15--15-----| (x3)
E|------------|


E|----------------------------------------------------|
B|--------------------------------------15------------|
G|----------------------------------------------------|
D|---15-17-14-12----------15-17-14---12---------------|
A|-13-----------15-12--13---------14------------------|
E|----------------------------------------------------|(x2)

Verso:

[ch]Dm                      [ch]Am7[/ch]                [ch]C[/ch]  REm[/ch]
Creaste el sol y las estrellas, los pintaste de color
                     [ch]Am                        [ch]Gm[/ch]  SIb[/ch]  [ch]Dm[/ch]  [ch]C[/ch]
Nos creaste y diste vida, nos llenaste de tu amor
[ch]Dm                    [ch]Am7[/ch]                [ch]C[/ch]     REm[/ch]
Los que estaban en tinieblas, en nosotros ven tu luz
                   [ch]Am                        [ch]Gm[/ch]  SIb[/ch] [ch]Dm[/ch] [ch]C[/ch]
Ilumina nuestros rostros con la gloria de tu cruz

PRE-CORO

E|-------------15-17-15----17-------
B|----------------------15---17-----
G|---15---15v------------------17---
D|-17--17---------------------------
A|----------------------------------
E|----------------------------------

E|-------------15-17-15----17-------
B|----------------------15---17-----
G|---15---15v------------------17---
D|-17--17---------------------------
A|----------------------------------
E|----------------------------------

Coro:

[ch]Dm       [ch]F   SOLm[/ch]  SIb[/ch]
Enciendenos, Alumbranos
      [ch]Dm            FA[/ch]         [ch]C[/ch]
Para luz del mundo ser, Y brillar con tu poder
[ch]Dm    [ch]F   SOLm[/ch]    SIb[/ch]
Avivanos, Iluminanos
          [ch]Dm         [ch]F[/ch]     LAm7[/ch]          [ch]C[/ch]
Y que el mundo pueda ver, Tu amor resplandecer

Puente:

   [ch]Dm                   SIb[/ch]
Tu gloria, Dios eterno brilla
                    [ch]F/LA[/ch]
Mas que el sol, tu gloria
             [ch]C    DO#dim[/ch]
Alumbra mi ciudad

E|-17--17--17-18-17-15-17--17--17-18-17--
B|---15--15--------------15--15----------
G|---------------------------------------
D|---------------------------------------
A|---------------------------------------
E|---------------------------------------

E|-15-17--17--17-18-17-15-15--15-----|
B|------13--13--------------13--1314-|
G|-----------------------------------|
D|-----------------------------------|
A|-----------------------------------|
E|-----------------------------------|

FINAL

E|--10--------12------------------12---------|
B|--13b-(x8)--15b-(x8)--10--------15b-(x8)---|
G|----------------------12b-(x8)-------------|
D|-------------------------------------------|
A|-------------------------------------------|
E|-------------------------------------------|

INSTRUMENTAL DE TECLADO:

Mano Izquierda: [ch]Dm         [ch]F[/ch]          LAm[/ch]           [ch]C[/ch]
Mano Derecha:   D-C-Bb-A-F, D-C-Bb-A-E, C-Bb-A-G-E, C-Bb-A-F.
Suggest correction
Give kudos to tab author, rate the tab!
1 2 3 4 5
comments
print report bad tab
guest
You may want to rate the tab now too:
select rating
Wanna post a correction for this tab? Suggest correction