Oops, an error
Loading. Please wait.

Ilumina Tab

version 2
version 2

Whole song

53 views 1 this week
no commentswrite comment
1 2 3 4 5
3 more votes to show rating
add to favorites
launch autoscroll
font size
0
reset
how to read this tab
guitar tuner
×
Best way to learn
"Ilumina"
Autoscroll
slow
fast
+/-
esc
set tempo
stop
Intro:
Dm F Am C (x3)
A# F Gm E Dm C Am
A# F Gm E Am Dm

E|--5--5--5--5--5--5--5--5--3--3--3--3--3--3--3--3
B|-8--8--8--8--6--6--6--6--5--5--5--5--5--5--1--1--  (x3)

B|------------------------------13s15--|
G|--10-12-9-7---------10-12-9-14--------|
D|8-----------10-7-8-------------------|

PIANO                       Acordes (Dm -F - Am - C)
D-C-A#-A-F
D-C-A#-A-E
C-A#-A-G-E
C-C-A#-A-F (Esto lo hace en todo el verso)

Verso:
Dm                       Am7                C   Dm
Creaste el sol y las estrellas, los pintaste de color
                     Am                        (Riff.1)
Nos creaste y diste vida, nos llenaste de tu amor
Dm                    Am7                C   Dm
Los que estaban en tinieblas, en nosotros ven tu luz
Am                                           (Riff.1)
Ilumina nuestros rostros con la gloria de tu cruz

Riff. 1
E|6---6---5---3--|
B|--8---6---6---5--|    (x2)
G|---7---7---7---5-|

Coro:
Dm       F   Gm    A#
Enciéndenos, Alúmbranos
      Dm             F         C
Para luz del mundo ser, Y brillar con tu poder
Dm     F   Gm    A#
Avívanos, Ilumínanos
          Dm         F     Am7              C
Y que el mundo pueda ver, Tu amor resplandecer

Puente:
   Dm                   A#
Tu gloria, Dios eterno brilla
                      F/A
Más que el sol, tu gloria
             C    C#dim
Alumbra mi ciudad

E|-17--17--17-18-17-15-17--17--17-18-17--
B|---15--15--------------15--15----------

E|-15-17--17--17-18-17-15-15--15-----|
B|------13--13--------------13--1314-|

FINAL

E|--10--------12------------------12---------|
B|--13b-(x8)--15b-(x8)--10--------15b-(x8)---|
G|----------------------12b-(x8)-------------|
Suggest correction
Give kudos to tab author, rate the tab!
1 2 3 4 5
comments
print report bad tab
guest
You may want to rate the tab now too:
select rating
Wanna post a correction for this tab? Suggest correction