Oops, an error
Loading. Please wait.

Magnifico Rey Bass

30 views 1 this week
no commentswrite comment
1 2 3 4 5
3 more votes to show rating
add to favorites
launch autoscroll
font size
0
reset
guitar tuner
×
Best way to learn
"Magnifico Rey"
Autoscroll
slow
fast
+/-
esc
set tempo
stop
INTRO:
G|-----16s4---4h6-------4---------------------------|
D|------------------4h6---6h4-----------------------|
A|-----------------------------2h4--------------2h4-|
E|----------------------------------2-4-4---2-4-----|

G|-------------------|   (X2)
D|-------------------|
A|-----------3-3-3-3-|
E|---4-4-6-6---------|

G|-----------------------------------|
D|-----------------------------------|
A|-----------3-3-3-3--5-5-5-5-5s11-11|
E|---4-4-6-6-------------------------|

Estrofa:

G|----------------------------|
D|----------------------------|
A|---3---3---1-----------1---3|
E|---------------1---1--------|

Coro:

G|-------------------|   (X2)
D|-------------------|
A|-----------3-3-3-3-|
E|---4-4-4-6---------|

G|-----------------------------------|
D|-----------------------------------|
A|-----------3-3-3-3--5-5-5-5-5s11-11|
E|---4-4-4-6-------------------------|

Segunda ministración:

G|------------------------------|
D|------------------------------|
A|--3---3---3---3---3-3-3-15s3--|
E|------------------------------|

Corte (x4):

G|-----------------------------|
D|-----------------------------|
A|--3-5-6-10-11-13-15-15-13-15-|
E|-----------------------------|

G|--------------|
D|--------------|
A|--3-5-6-10-11-|
E|--------------|


Se sube medio tono(x2):

G|-----------------------------|
D|-----------------------------|
A|--4-6-7-11-12-14-16-16-14-16-|
E|-----------------------------|

G|--------------|
D|--------------|
A|--4-5-7-11-12-|
E|--------------|


Y... otro medio tono(x2):

G|-----------------------------|
D|-----------------------------|
A|--5-7-8-12-13-15-17-17-15-17-|
E|-----------------------------|

G|--------------|
D|--------------|
A|--5-7-8-12-13-|
E|--------------|


Se sube un tono el coro:

G|-------------------|   (X2)
D|-------------------|
A|-----------5-5-5-5-|
E|---6-6-6-8---------|

G|-----------------------------------|
D|-----------------------------------|
A|-----------5-5-5-5--7-7-7-7-7s13-13|
E|---6-6-6-8-------------------------|

Orden:
*Intro
*Estrofa x8
*Coro x1
*Estrofa x4
*Coro x2
*Estrofa x4
*Coro x2
*Estrofa x14
*Coro x2
*Segunda ministración.
*Corte
*Coro subido un tono x2

Espero que les sea de bendición :D Dios los bendiga
Suggest correction
Give kudos to tab author, rate the tab!
1 2 3 4 5
comments
print report bad tab
guest
You may want to rate the tab now too:
select rating
Wanna post a correction for this tab? Suggest correction