Oops, an error
Loading. Please wait.

Mi Fiel Refugio Tab

30 views 1 this week
no commentswrite comment
1 2 3 4 5
3 more votes to show rating
add to favorites
launch autoscroll
font size
0
reset
how to read this tab
guitar tuner
Autoscroll
slow
fast
+/-
esc
set tempo
stop
Help us to improve Ultimate-Guitar.com Take our survey!
×
esta cancion es una de mis favoritas

lo acordes y los riff estan en un 100%

[ch]E[/ch] Fiel Refugio(Cm)

Intro: Cm - F - Bb - Eb - Cm - D7(b9) - G - F/A -
G7(b9)/B - Cm - F - Bb - Eb - Cm - D7(b9) - Gm9

            Cm     F            Bb       Eb          Cm    D7(b9)
-----------|------|------------|--------|-----------|-----|------
-6/8/6-----|--6h8-|--4/6/4-----|----4/6-|-----------|-----|------
-------7-7h|8-----|5-------5-5/|7-------|---8p7-----|-----|8--7--
-----------|------|------------|--------|8------8-8/|10---|10----
-----------|------|------------|--------|-----------|-----|------
-----------|------|------------|--------|-----------|-----|------

G - F/A - G7(b9)/B   sax..  Cm        F               Bb
-7---8--|10-13h15-13-------|---13/15-|---13----------|---11/13-
--------|------------15-15/|16-------|13----16-13-13h|15-------
--------|------------------|---------|---------------|---------
-9--10--|12----------------|---------|---------------|---------
--------|------------------|---------|---------------|---------
--------|------------------|---------|---------------|---------

 Eb                 Cm         D7(b9)         Gm9
----10h11p10-------|------10h|11-10-13p11p10-|--------------
-11----------11-11/|13-------|---------------|11-11p9p8-9p8-
-------------------|---------|---------------|--------------
-------------------|---------|---------------|--------------
-------------------|---------|---------------|--------------
-------------------|---------|---------------|--------------


Verso:

     Eb    F
Eres mi amor
    Dm11   Gm7(9)
Eres mi pasión
      Eb      F     Gm7(9)
Eres todo cuanto anhelé
        Eb      F
Fue tu gracia que
     Dm11   Gm7(9)
Alcanzó mi ser
        Eb       F        Gm7(9)
No hay palabras como agradecer


Coro:
        Cm             F
Eres mi paz, mi provisión
          Bb              Eb
Eres mi fuerza en la aflicción
           Cm
Mi fiel refugio en quien
      D7(b9)      G  F/A  G7(b9)/B
Yo siempre confiare - e - e
             Cm             F
Sólo a tus pies mi buen pastor
          Bb          Eb
Quiero rendir mi corazón
        Cm         D7(b9)
Derramo mi perfume hoy
          Gm9
Sin condición

Solo:

-----8h10-8-----|------------|---------|-----------|----------
-8-11------11-8/|10-11/13----|---10-11-|10---------|----------
----------------|---------11/|12-------|----8-7--7-|-5--------
----------------|------------|---------|---10-8-10-|-7--------
----------------|------------|---------|-----------|----------
----------------|------------|---------|-----------|----------


---------------------------|-----
---------------11--13/15---|-----
-------------12-12------12/|14-12  ...
--------10-12--------------|-----
-8-10-11-------------------|-----
---------------------------|-----


Saxo:

---8-8h10-|10-8----8h10-|8-------8-8h10|-10--8---15h17p15-|
-11-------|-----11------|--11-11-------|------11----------|
----------|-------------|--------------|------------------|
----------|-------------|--------------|------------------|
----------|-------------|--------------|------------------|
----------|-------------|--------------|------------------|


-10-11-13-13--11p10h11-|--18-18-17-15-13-|
-----------------------|-----------------|
-----------------------|-----------------|----
-----------------------|-----------------|----
-----------------------|-----------------|-
-----------------------|-----------------|

-15h17p15----------------------------
-----------16p15h16p15-13p11h13p11---
--------------------------------------
--------------------------------------
--------------------------------------
--------------------------------------


----------13-13------------17h18p17-|13-13-15----15-----------
-15-15-16------16-16-15-17----------|---------15----13-11-11--
------------------------------------|-------------------------
------------------------------------|-------------------------
------------------------------------|-------------------------
------------------------------------|-------------------------


-------13-----------------------------15-15-17-17-18------
-13-15----16-15-16----15-15--13-11-13---------------------
----------------------------------------------------------
----------------------------------------------------------
----------------------------------------------------------
----------------------------------------------------------

Coro:
        Cm             F
Eres mi paz, mi provisión
          Bb              Eb
Eres mi fuerza en la aflicción
           Cm
Mi fiel refugio en quien
      D7(b9)      G  F/A  G7(b9)/B
Yo siempre confiare - e - e
             Cm             F
Sólo a tus pies mi buen pastor
          Bb          Eb
Quiero rendir mi corazón
        Cm         D7(b9)
Derramo mi perfume hoy
          Gm9
Sin condición


eso es todo solo me falta sacar la improvisacion
eso es todo cualkier duda mi correo es jsua_14@

Bendiciones
Suggest correction
Give kudos to tab author, rate the tab!
1 2 3 4 5
comments
print report bad tab
guest
You may want to rate the tab now too:
select rating
Wanna post a correction for this tab? Suggest correction