Oops, an error
Loading. Please wait.

Mi Universo Tab

58 views 1 this week
no commentswrite comment
1 2 3 4 5
3 more votes to show rating
add to favorites
launch autoscroll
font size
0
reset
how to read this tab
guitar tuner
Autoscroll
slow
fast
+/-
esc
set tempo
stop
Help us to improve Ultimate-Guitar.com Take our survey!
×
HOla a todos..un saludos desde coatza!! aki esta esta super
cancion que desde que la oia
impresiono el solo! neta..como dice un amigo.,se siente que con
ese solo ya estan cayendose la gente x la uncion jajajaja :P

PS aki esta la cancioncita..la que esta aki en la lista ps
desafortunadamente no esta en las notas y le faltan..

asi que me atrevi a sacarla...espero que la puedan tocar y si no
escribanme a

bggs15@ o agregenme como quieran..toy para servirles..

MONTE HERMON VAMS PA DELANTE CON LA AYUDA DEL DIOS TODO PODEROSO!!

MI UNIVERSO ERES TU..!! COOOLL!!

cual quier duda con las notas..me mensajean y ya les digo porque
es una posicion diferente de Gm7..pero con la normal suena bien un saludo


INTRO

Dm7 - Gm7 (2 veces)

VERSO
Dm7                     Gm7
TU MIRADA, MAS QUE EL SOL
                         F  C       Gm7-F/A-A#
TU PRESENCIA Y RESPLANDOR, MAS QUE MI VOZ
Dm7                   Gm7
TU AMOR MAS QUE EMOCION
                         F    C     Gm7-F/A-A#
TUS PALABRAS MI CANCION, MI INSPIRACION


CORO:
        Gm7    A#/D F C
MI UNIVERSO ERES TU
       Gm7     A#/D  F C
EL PRINCIPIO Y EL FIN
         Gm7     A#/D  F
CON MIS FUERZAS Y MI SER
  D5    C
TE AMARE
       Gm7    A#/D  F C
MI UNIVERSO ERES TU
      Gm7   A#/D  F C
CORONADO EN MAJESTAD
        Gm7  A#/D  F
LA CREACION PROCLAMARA
   D5   C
TU ERES REY


PUENTE:

E ---------------------------------------
A ---------------------------------------
D ---------------------------------------
G --5-5h7--5-5h7----------------7--------
B ----------------8-------8-6-5----------
e ------------------5-6-5----------------

SOLO:

La vdd me dio flojera acomodar las notas exactamente donde van..
asi que se las puse ahi abajito..son esas cuatro..
escuchen la cancion
y veran que son progresivas.,.siempre al mismo tiempo..
ESCUCHEN BIEN
LA CANCION.. POR FAVOR..
Notas

Gm7 - F/A - A#/D - A#

E ---------------------------------------
A ---------------------------------------
D ---------------------------------------
G -10b12--12b14--10b12---8b10--10b12-----
B -8------10-----8-------6-----8---------
e ---------------------------------------

E ---------------------------------------
A ---------------------------------------
D ---------------------------------------
G ---------------------------------------
B ---8--10h11p10-13--10h1110-----11^-----  aki se ven asi ^^
e -10----------------------10-10-10^-----  se toca varias veces
                                           porque el hace la nota
                                           A# pero nada mas la
                                            Tonica
                                           y la tercera!..
                                             bueno es una
                                           observacion.
                                            .cheken la cancion
E ---------------------------------------
A ---------------------------------------
D -----------------------15-17-----------
G -------------------10-------15-15------
B -15-15-15--11--10----------------------
e -13-13-13--10----13--------------------

E -----------------------------------------
A -----------------------------------------
D -17-17-15----------------17--------------
G -----------15h17---17p15-----15h17p15p14-
B ----------------15-----------------------
e -----------------------------------------

E ---------------------------------------
A ---------------------------------------
D ---------------------------------------
G ---------------------------------------
B -18-x-18-------------------------------
e ---------17-17b18r17-15-18-20b22-------

E -----------------------------------------
A -----------------------------------------
D -----------------------------------------
G -----------------------------------------
B ----------------18--------------18-15s13-
e -18-17-18-17-15----15--18-17-15----------

E ---------------------------------------
A ---------------------------------------
D ---------------------------------------
G -15-14--14-----------------------------
B ----------13h15---13h15p13p11-13------- ** aki para tocar esto
e ------13-------------------------------    necesitas tener un poko
                                             de velocidad en
E ---------------------------------------   los dedos porque
A ---------------------------------------    si esta un pokito
D ---------------------------------------    rapido escuchen
G ---------------------------------------    escuchen la cancion**
B -10h11h13s8-10h11--8-10h11p10p8--------
e ---------------------------------------

E ---------------------------------------
A ---------------------------------------
D ---------------10p8p7-7-8-10-----------
G -10p9p7-10p9p7---------------7-9-10----
B ---------------------------------------
e ---------------------------------------

E ------------------------------------------------
A ---------------10-8h10--8h10---------------10p8- ** aki finaliza lo
D --------10-8-7---------------8h10-----10p8------  rapido es
G -10-9-7---------------------------7-7-----------   como quien dice..
B ------------------------------------------------   asincopado
e ------------------------------------------------ y con sentimiento
                                                     sentimiento es lo
E ------------------------------------------     K tuvo ese guitarrista
A ------------------------------------------         en este disco musho
D ------------------------------------------          "feeling"**
G --3--5-5-5-3--5-3--3-5--5-3---3-5-5s7-7-7-
B -6--6--------6----6----6----6-------------
e ------------------------------------------

E ---------------------------------------
A ---------------------------------------
D ---------------------------------------
G -7s10-12-12-12-12-12-12s14-14-14-s3----
B ---------------------------------------
e ---------------------------------------

E ---------------------------------------------
A ---------------------------------------------
D ---------------------------------------------
G -3-3s5-5s7-7s10---------------------12-12s15-
B ----------------8s10-11-11s13-13s15----------
e ---------------------------------------------

E ---------------------------------------
A ---------------------------------------
D ---------------------------------------
G -15-15-15-15-15p14-15p14-15p14-15------
B ---------------------------------------
e ---------------------------------------

E ---------------------------------------
A ---------------------------------------
D ---------------------------------------
G -14-14-15-14-15--14-14-15-14-15--------
B ---------------------------------------
e ---------------------------------------


E ---------------------------------------
A ---------------------------------------
D ---------------------------------------
G -14-14-15-14-15--14-14-15-14-15--------
B ---------------------------------------
e ---------------------------------------


E ---------------------------------------
A ---------------------------------------
D ---------------------------------------
G -14-14-15-14-15--14-14-15-14-15--------
B ---------------------------------------
e ---------------------------------------

E --------------------------------------------------
A --------------------------------------------------
D ------------------------------17------------------
G -s17-17--17-15-17-17b19-15-14----14-15-15b17------
B --------------------------------------------------
e --------------------------------------------------

E ------------------------------
A ------------------------------
D ------------------------------
G -15-14-15-17-17b19------------
B ------------------------------
e ------------------------------

Bueno..aki les dejo esta cancion
cita y con el solo de guitarra..espero
que les sea de musha utilidad..
y no sean malos califiquenme para ir
mejorando..cualquier duda o sugerencia
al bggs15@ me llamo jorge

un saludo y que Dios les bendiga mushote!!

MONTE HERMON COATZACOALCOS
Suggest correction
Give kudos to tab author, rate the tab!
1 2 3 4 5
comments
print report bad tab
guest
You may want to rate the tab now too:
select rating
Wanna post a correction for this tab? Suggest correction