Oops, an error
Loading. Please wait.

Nadie Es Como Nuestro Tab

52 views 1 this week
no commentswrite comment
1 2 3 4 5
3 more votes to show rating
add to favorites
launch autoscroll
font size
0
reset
how to read this tab
guitar tuner
Autoscroll
slow
fast
+/-
esc
set tempo
stop
Help us to improve Ultimate-Guitar.com Take our survey!
×
Hermanos esta es mi primera tablature espero les sirva.

primero que todo esta cancion se toca con un capo

hubicado en el Segundo traste.

Intro
 A/C#-F#m-E

E-7-6------------
B-----7----------
G-------6~6~-----
D------------9---
A----------------
E----------------


Verso
 A/C#  F#m     E
    Oh Dios restáuranos,
 A/C#      F#m          E
    Haz resplandecer tu rostro,
 A/C#    F#m    E    D     F#m    E
    Sálvanos oh Dios, Sálvanos oh Dios

 Coro
  A        E   Bm              D
    Alúmbranos,  con Tu Resplandor
  A         E  Bm             D
    Enciéndenos, con El Fuego De Tu Corazón

      A       Bm      C#      Bm              Bm      C#        E        D
   B--10-  B--12-  B--14-  B--12-          B--12-   B--14-   B--17-   B--15-
   G--X-   G--X-   G--X-   G--X-           G--X-    G--X-    G--X-    G--X-
   D--7-   D--9    D--11-  D--9-           D--9-    D--11-   D--13-   D--12-

 Intro

 Verso

 Coro

 Puente
  E          A/C#         D
    Nadie es como nuestro Dios, Poderoso
  E          A/C#         D
    Nadie es como nuestro Dios.

 Acordes del solo
 E-A/C#-D

SOLO


E-------------------------12-12-12-12-14-14-14-14------
B-14-14-14-14-12-12-12-12------------------------------
G------------------------------------------------------
D------------------------------------------------------
A------------------------------------------------------
E------------------------------------------------------

E-------------------------14-14-14-14-12-12-12-12------
B-14-14-14-14-12-12-12-12------------------------------
G------------------------------------------------------
D------------------------------------------------------
A------------------------------------------------------
E------------------------------------------------------

E-------------------------12-12-12-12-14-14-14-17-17-17-17--------
B-14-14-14-14-12-12-12-12-----------------------------------------
G-----------------------------------------------------------------
D-----------------------------------------------------------------
A-----------------------------------------------------------------
E-----------------------------------------------------------------

E------------------------------------------------------
B-10-12-14-12------------------------------------------
G------------------------------------------------------
D------------------------------------------------------
A------------------------------------------------------
E------------------------------------------------------

Coro:


Solo no se si esta corecto, pero tal vez ustedes le hacen mudificaciones
y suene major.

Dios les bendigas y este es mi correo mmadrid175@
Suggest correction
Give kudos to tab author, rate the tab!
1 2 3 4 5
comments
print report bad tab
guest
You may want to rate the tab now too:
select rating
Wanna post a correction for this tab? Suggest correction