Oops, an error
Loading. Please wait.

Que Los Cielos Se Abran Hoy Bass

version 1
version 1

Whole song

Interactive

61 views 1 this week
no commentswrite comment
1 2 3 4 5
3 more votes to show rating
add to favorites
launch autoscroll
font size
0
reset
guitar tuner
×
Best way to learn
"Que Los Cielos Se Abran Hoy"
Autoscroll
slow
fast
+/-
esc
set tempo
stop
Intro:  Guitarra ritmica 1ª vuelta, 2ª entra bajo
e|------6---3-5------5-|
a|-2s5-----------1-3---|
d|---------------------| x2 entramos al verso en D
g|---------------------|

Verso 1: Que tu fuego queme...
e|------6s1-----5m-5m-3-5----|
a|-5s1------5s1----------2s3-|
d|---------------------------|
g|---------------------------|

Verso 2: Tu precencia sane...
e|------6s1--------------|
a|-5s1------5s1--3-3-3-3-|
d|-----------------------|
g|-----------------------|

Coro: Potestades caen...
e|------------------------------
a|-7m-7m-7m-0-5-7-7m--0-5-0-5-7-
d|------------------------------
g|------------------------------

----------------------------|
3m-3m-3m-0-2-2m--0-2-0-2-3--| x3
----------------------------|
----------------------------|

|----------------------------|
|-7m-7m-7m-0-5-7-7m-7-7-7--5-|
|----------------------------|
|----------------------------|

Puente: Santo Santo!...
e|----------------------------------------------7(4)-|
a|-3(4)---------5(4)---------7(4)--------------------|
d|---------5(4)---------7(4)-------------------------|
g|-----5(4)---------7(4)---------9(4)-7(4)-9(4)------|

Instrumental:
e|-------------7(4)-5(4)-------------------------|
a|-3(4)-5-7(4)-----------3(4)-5-7(4)-2-(4)--0(4)--|
d|-----------------------------------------------|
g|-----------------------------------------------|

Puente x2 y Final:
e|-----------------3(4)-0---|
a|-7(4)--2(4)-3(4)----------|
d|--------------------------|
g|--------------------------|


 S = Slide (deslizar sobre cuerda)
 m = Mute (Silenciar o ahogar)
(4) = 4 Timpos sobre bajeo (sin contar num. de bajeos)


SaludOs!!

Dany boy
Suggest correction
Give kudos to tab author, rate the tab!
1 2 3 4 5
comments
print report bad tab
guest
You may want to rate the tab now too:
select rating
Wanna post a correction for this tab? Suggest correction