Oops, an error
Loading. Please wait.

Que Los Cielos Se Abran Hoy Bass Tab

version 2
version 2

Whole song

Interactive

20 views 1 this week
no commentswrite comment
1 2 3 4 5
3 more votes to show rating
add to favorites
launch autoscroll
font size
0
reset
guitar tuner
Autoscroll
slow
fast
+/-
esc
set tempo
stop
Help us to improve Ultimate-Guitar.com Take our survey!
×
Hola que tal, Dios les bendiga soy josue de nuevo
y en esta ocasión quiero compartir con ustedes esta
canción que me gusta en lo personal mucho por su
letra, es una canción un poco complicada al principio
por que lleva varios adornos del bajo así que,
escuchen muy bien la canción mientras miran la esta
tablatura, los números entre paréntesis son los
minutos y segundos exactos donde se oyen esos
adornos.

Cualquier duda, comentario, petición de alguna canción
en guitarra o bajo eléctrico contáctenme a mi mail:

soyfang@

o en faceboook:

Josue Osorio Jimenez


Artista: Marco Barrientos
Álbum: Viento Mas Fuego
Canción: Que Los Cielos Se Abran Hoy
Instrumento: Bajo Eléctrico


Intro
                             (0:05)                 (0:08)    (0:11)
G|-------------------------------------------------------------------
D|-------------------------------------------------------------------
A|---5----------------------------3-----------------5---------3s5-3--
E|----------------------------3h5---5-3h5----------------------------
B|-----------------------------------------3-------------------------

                        (0:19)            (0:25)
G|-------------------------------------------------------------------
D|-------------------------------------------------------------------
A|--------------------------------------------3?1h3-1h3-1h3--3-3-----
E|--5?3s5--1------------------------------3h5------------------------
B|------------3----------3/14\-3----------------------------------3--

            (0:32)                            (0:38)
G|-------------------------------------------------------------------
D|----------------------2s3-2----------------------------------------
A|--------------3--5-5--------5-------------------3---5--5--5------3-
E|----------3h5-------------------------------3h5--------------3h5---
B|-------------------------------3-----------------------------------

                      (0:45)                        (0:53)
G|-------------------------------------------------------------------
D|--------------------15--15--15-------------------------------------
A|-5-----------------------------------------------------3?3h5--3h5--
E|---------------------------------------------------3h5-------------
B|----3--------------------------------3-----------------------------

         (0:58)      (0:59)              (1:04)      (1:08) (1:14)
G|-------------------------------------------------------------------
D|-----------------------3-2-----------------------------------------
A|-----------5--------3h5-----------------3h5----------------3/13\---
E|-------3h5---------------------------------------------------------
B|3---------------------------3--------------3--------3------------3-

     (1:21)      (1:28)
G|----------------------|
D|---------------5h7----|
A|----------------------|
E|----------------------|
B|---3/11\--3-----------|


Verso 1

G|-----7-7-----------------------------------------------------------
D|----------------------------------------------5s7------------------
A|-------------------------------5-5---------------------------------
E|-----------------6-6------------------------------5-5---------5----
B|-------------------------------------------------------------------


G|-------------------------------------------------------------------
D|-------------------------------------------------------------------
A|--5-5------------------------------5-5-------3-3-----3-3----3-3-3-3
E|---------------6-6-------------5h7---------------------------------
B|-------------------------------------------------------------------


G|------|
D|------|
A|-3-3--|
E|------|
B|------|

Pre coro 1

G|-------------------------------------------------------------------
D|-------------------------------------------------------------------
A|---------------------------------3-3-3-3-3-3-3-3-3-3-3-3-3-3-3-3-7-
E|-0-0-0-0-0-0-0-0-0-0-0-0-0-0-0-0-----------------------------------
B|-------------------------------------------------------------------


G|-------------------------------------------------------------------
D|-----------------------------------------------5s9-9-9-9-9-9-9-9-9-
A|-7-7-7-7-7-7-7-7-7-7-7-7-7-7-7-------------------------------------
E|-------------------------------7-7-7-7-7-7-7-7---------------------
B|-------------------------------------------------------------------


G|-------------------------------------------------------------------
D|-------------------------------------------------------------------
A|---------------------------------3-3-3-3-3-3-3-3-3-3-3-3-3-3-3-3-7-
E|-0-0-0-0-0-0-0-0-0-0-0-0-0-0-0-0-----------------------------------
B|-------------------------------------------------------------------


G|---------------------------------------------------------------|
D|---------------------------------------------------------------|
A|7-7-7-7-7-7-7-7-7-7-7-7-7-7-7-5-5-5-5-5-5-5-5-5-5-5-5-5-5-5-5--|
E|---------------------------------------------------------------|
B|---------------------------------------------------------------|


Coro 1

G|-------------------------------------------------------------------
D|-------------------------------------------------------------------
A|-------------------------------------------------------------------
E|-------------------0-----------------------------------0-----------
B|-1--------3----------------0---------1--------3----------------3---

Puente 1

G|-------------------------------------------------------------------
D|-------------------------------------------------------------------
A|-5-5-5-5-5-5-5-5-5-5-5-5-5-5-5-5-----------------------------------
E|---------------------------------6-6-6-6-6-6-6-6s18-18-18-18-18-18-
B|-------------------------------------------------------------------


G|------------------------------------------------------|
D|-----------------------------------------7-7----------|
A|---------5-5-5-5-5-5-5-5-5-5-5-5-5-5-5-5--------------|
E|18-18-18-------------------------------------------5--|
B|------------------------------------------------------|

Verso 2

G|------------------11---------------------------11-----------------
D|------------11h12----12-11h12------------11h12----12-11h12--------
A|--5-5-------------------------------------------------------------
E|-------------------------------6-6--------------------------5-5---
B|------------------------------------------------------------------


G|---------11-------------------------------------------11-----------
D|---11h12----12-11h12--7-7-----------------------11h12----12-11h12--
A|---------------------------------------5-5-------------------------
E|-----------------------------5-------------------------------------
B|-------------------------------------------------------------------


G|-----------------11------------------------------------------------
D|-----------11h12----12-11h12---------------------------------------
A|------------------------------5-5----------------3-3----3-3-3---3-3
E|---6-6-------------------------------------------------------------
B|-------------------------------------------------------------------


G|----------|
D|----------|
A|-3-3-3-3--|
E|----------|
B|----------|


Pre coro 2

G|------------------------------------------------------------------
D|------------------------------------------------------------------
A|-----------------------------2---3-3-3-3-3-3-3-3-3-3-3-3-3-3-3-3-7
E|-0-0-0-0-0-0-0-0-0-0-0-0-0-3---3----------------------------------
B|------------------------------------------------------------------


G|-------------------------------------------------------------------
D|-------------------------------------------------------------------
A|-7-7-7-7-7-7-7-7-7-7-7-7-7-7-7-------------------------------------
E|-------------------------------7-7-7-7-7-7-7-7s19-19-19-19-19-19-19
B|-------------------------------------------------------------------


G|-------------------------------------------------------------------
D|-------------------------------------------------------5-6---------
A|-----------------------------2---3-3-3-3-3-3-3-3-3-3-3-----7-5s7-7-
E|-0-0-0-0-0-0-0-0-0-0-0-0-0-3---3-----------------------------------
B|-------------------------------------------------------------------


G|-------------------------------------------------------------------
D|-------------------------------------------------------------------
A|7-7-7-7-7-7-7-7-7-7-7-7-7-7-7-5-5-5-5-5-5-5-5s17-17-17-17-17-17-17-
E|-------------------------------------------------------------------
B|-------------------------------------------------------------------


G|----|
D|----|
A|17--|
E|----|
B|----|

Coro 2

G|-------------------------------------------------------------------
D|-------------------------------------------------------------------
A|-3-3-3-3-3-3-3-3-3-3-3-3-3-3-3-3-5-5-5-5-5-5-5-5-5-5-5-5-5-5-5-5---
E|-----------------------------------------------------------------0-
B|-------------------------------------------------------------------


G|-------------------------------------------------------------------
D|-------------------------------------------------------------------
A|------------------------------2-2-2-2-2-2-2-2-2-2-2-2-2-2-2-2-3-3-3
E|0-0-0-0-0-0-0-0-0-0-0-0-0-0-0--------------------------------------
B|-------------------------------------------------------------------


G|-------------------------------------------------------------------
D|-------------------------------------------------------------------
A|-3-3-3-3-3-3-3-3-3-3-3-3-3-5-5-5-5-5-5-5-5-5-5-5-5-5-5-5-5-7-7-7-7-
E|-------------------------------------------------------------------
B|-------------------------------------------------------------------


G|---------------------------------------------------------|
D|---------------------------------------------------------|
A|7-7-7-7-7-7-7-7-7-7-7-7-5-5-5-5-5-5-5-5-5-5-5-5-5-5-5-5--|
E|---------------------------------------------------------|
B|---------------------------------------------------------|

Puente durante solo de guitarra

G|--------------------------------------------------------------------
D|--------------------------------------------------------------------
A|-12-12-12-12-12-12-12-12--------------------------------------------
E|-------------------------5-5-5-5-5-5-5-5-7-7-7-7-7-7-7-7-7-7-7-7-7-7
B|--------------------------------------------------------------------


G|--------------------------------------------------------------------
D|--------------------------------------------------------------------
A|-------------------------------------5-5-5-5-5-5-5-5s17-17-17-17-17-
E|-7-7-8-8-8-8-8-8-8-8-8-8-8-8-8-8-8-8--------------------------------
B|--------------------------------------------------------------------


G|--------------------------------------------------------------------
D|-------------7------------------------------------------------------
A|17-17-17------------------------------------------------------------
E|---------5-5---5-5-5-5-5-17-17-17-17-17-17-17-17-7-7-7-7-7-7-7-7-7-7
B|--------------------------------------------------------------------


G|-------------------------------------------------------------------|
D|-------------------------------------------------------------------|
A|------------------------------------------------------------2--/\--|
E|-7-7-7-7-7-7-8-8-8-8-8-8-8-8-8-8-8-8-8-8-8-8----2---3---5----------|
B|-------------------------------------------------------------------|

Coro 3

G|-------------------------------------------------------------------
D|-------------------------------------------------------------------
A|----------------7-----7--7---2------3-3-3-3-3-3-3-3-3-3-3-3-3-3-3-3
E|------------------0------------------------------------------------
B|-1------3----------------------------------------------------------


G|-------------------------------------------------------------------
D|-------------------------------------------------------------------
A|-5-5-5-5-5-5-5-5-5-5-5-5-5-5-5-5-7-7-7-7-7-7-7-7-7-7-7-7-7-7-7-7-9-
E|-------------------------------------------------------------------
B|-------------------------------------------------------------------


G|-------------------------------------------------------------------
D|-------------------------------------------------------------------
A|9-9-9-9-9-9-9-9-9-9-9-9-9-9-9-3-3-3-3-3-3-3-3-3-3-3-3-3-3-3-3-5-5-5
E|-------------------------------------------------------------------
B|-------------------------------------------------------------------


G|-------------------------------------------------------------------
D|-------------------------------------------------------------------
A|-5-5-5-5-5-5-5-5-5-5-5-5-5-----------------------------------------
E|---------------------------0-0-0-0-0-0-0-0-0-0-0-0-0-0-0-0-2-2-2-2-
B|-------------------------------------------------------------------


G|-------------------------------------------------------------------
D|-------------------------------------------------------------------
A|-------------------------------------------------------------------
E|2-2-2-2-2-2-2-2-2-2-2-2--------------------------------------------
B|------------------------1-1-1-1-1-1-1-1-1-1-1-1-1-1-1-1-3-3-3-3-3-3


G|---------------------------------------------------------|
D|---------------------------------------------------------|
A|---------------------------------------------------------|
E|---------------------------------------------------------|
B|-3-3-3-3-3-3-3-3-3-3-5-5-5-5-5-5-5-5-5-5-5-5-5-5-5-5--3--|

Final

G|---------------------------------|-----------------|-------|
D|--------------------------4--5---|---x-/----se-----|-------|
A|--------------5-5-5-7-7-7--------|----/-x-repite---|-------|
E|--5-5-5-7-7-7--------------------|---/------4------|----7--|
B|---------------------------------|--------veces----|-------|
Suggest correction
Give kudos to tab author, rate the tab!
1 2 3 4 5
comments
print report bad tab
guest
You may want to rate the tab now too:
select rating
Wanna post a correction for this tab? Suggest correction