Oops, an error
Loading. Please wait.

Que Los Cielos Se Abran Hoy tab

version 2
version 2

Whole song

Interactive

70 views 1 this week
no commentswrite comment
1 2 3 4 5
3 more votes to show rating
add to favorites
×
Save as Personal and add changes to this tab that will be seen only by you. Learn more ›
×
You can save this tab as Personal to edit and correct it or add notes. All changes will be seen only by you. Learn more »
launch autoscroll
font size
0
reset
how to read this tab
guitar tuner
edit
Autoscroll
slow
fast
+/-
esc
set tempo
stop
Dios les Bendiga a todos, aqui esta la nueva version de esta alabanza
de
poder:

SOLO LE MODIFIQUE LO QUE ES EL INTRO EL QUE TRANSCRIBIO LA ROLA
EN EL INTRO
HACIA OTRA FIGURA SE ESCUCHABA BIEN PERO ESTA ES LA ORIGINAL

Intro X4
//
e----10-10-10-12-12-12-13-13-13-10-10-10-12-12-13-13-----------
B----10-10-10-10-10-10-10-10-10-10-10-10-10-10-10-10-----------
G--------------------------------------------------------------
D--------------------------------------------------------------
A--------------------------------------------------------------
E--------------------------------------------------------------

e----13-13-13-13-13-13-13-13--12-12-12-12-12-12-12-12----------
B----11-11-11-11-11-11-11-11--11-11-11-11-11-11-11-11----------
G--------------------------------------------------------------
D--------------------------------------------------------------
A--------------------------------------------------------------
E--------------------------------------------------------------

//
XXXXXXXXXXXXXXXXXXXXXXXXXXXXXXXXXXXXXXXXXXXXXXXXXXXXXXXXXXXX
------------------------------------------------------------>
XXXXXXXXXXXXXXXXXXXXXXXXXXXXXXXXXXXXXXXXXXXXXXXXXXXXXXXXXXXX
//
e---------------------------------------------------
B---------------------------------------------------
G----10-10--10--7-7-9-10--10--14-14-12-12-10-10//---   Se repite
D----10-10--10--7-7-9-10--10--14-14-12-12-10-10//---   2 veces
A---------------------------------------------------
E---------------------------------------------------


Los Versos son los mismos q la original.

Coro
Intro X4
//
e----10-10-10-12-12-12-13-13-13-10-10-10-12-12-13-13-----------
B----10-10-10-10-10-10-10-10-10-10-10-10-10-10-10-10-----------
G--------------------------------------------------------------
D--------------------------------------------------------------
A--------------------------------------------------------------
E--------------------------------------------------------------

e----13-13-13-13-13-13-13-13--12-12-12-12-12-12-12-12----------
B----11-11-11-11-11-11-11-11--11-11-11-11-11-11-11-11----------
G--------------------------------------------------------------
D--------------------------------------------------------------
A--------------------------------------------------------------
E--------------------------------------------------------------

Que tu fuego queme, que tu viento sople
Dm                  C
Tu porder queremos ver
Dm                    Bb
Tu presencia sane, tu verdad libere
Dm                      C
Que los Cielos se Abran Hoy

Verso
Em               C
Potestades caen, principados huyen
Em                D
ante ti Glorioso Rey
Em                   C
Libres en tu muerte, salvos por tu sangre
Em             D
Poderoso Vencedor

Punte
C             D
Santo, Santo, Digno, Digno
Em           D
Santo, Santo Fuerte Eterno Dios

C D Em D X2

Solo de Guitarra
e--------------------10(4)-12(3)-10(3)-----10(3)------------------------
B-8(13)--10-10s12(12)-----------------12(3)-----12h13p12-10-8---8-------
G-------------------------------------------------------------9---7-7h9-
D-----------------------------------------------------------------------
A-----------------------------------------------------------------------
E-----------------------------------------------------------------------

e----14p15p14-12----10s12-12*--14-14h15*-17--17-17-17-15-15-15--
B----------------12---------------------------------------------
G---------------------------------------------------------------
D---------------------------------------------------------------
A---------------------------------------------------------------
E---------------------------------------------------------------

e---14-14-14----14--------------------------------------------------
B------------15----15--13-13-13-12-12-12----------------------------
G----------------------------------------12-12-12-------------------
D-------------------------------------------------12h14-14-12h14-14-
A-------------------------------------------------------------------
E-------------------------------------------------------------------

Outro(guitarra)
e--------------------------------------------------------------------
B--------------------------------------------------------------------
G--9-9-9-9-9-9-9-9---11-11-11-11-11-11-11-11-12-12-12-12-12-12-12-12-
D--9-9-9-9-9-9-9-9---9--9--9--9--9--9--9--9--9--9--9--9--9--9--9--9--
A--------------------------------------------------------------------
E--------------------------------------------------------------------

e-----------------------------------------------
B-----------------------------------------------
G--5-5-5-5-5-5-5-5-5-5-5-5-5-5-5-5-----9--------
D--5-5-5-5-5-5-5-5-5-5-5-5-5-5-5-5-----9--------
A-----------------------------------------------
E-----------------------------------------------


Chavos les recomiendo que escuchen bien el solo el asterisco (*) o los
numeros [x] significan la cantidad de veces  a ser digitada esa posicion
o que la toquen cuantas veces sea necesario para acomodarlo al tiempo,
debido a que el guitarrista puntea los tiempos deben escucharla para
acomodarla usen las notas y acomodenlas con el tiempo. Bendiciones

Saludos Ministerio de Alabanza HEFZI-BA

            
            
Suggest correction
Creating personal tab
Creating personal tab
You can edit any tab online and save it as your Personal.

You can edit, replace or remove any tab part or add personal notes – all changes will be seen only by you.

Personal tabs can be accessed anytime from any device, even offline.
Learn more »
Give kudos to tab author, rate the tab!
1 2 3 4 5
comments
print report bad tab
guest
Wanna post a correction for this tab? Suggest correction