Oops, an error
Loading. Please wait.

Que Los Cielos Se Abran Hoy Tab

version 3
version 3

Whole song

Interactive

50 views 1 this week
no commentswrite comment
1 2 3 4 5
3 more votes to show rating
add to favorites
launch autoscroll
font size
0
reset
how to read this tab
guitar tuner
×
Best way to learn
"Que Los Cielos Se Abran Hoy"
Autoscroll
slow
fast
+/-
esc
set tempo
stop
Intro:

    Dm7
 e|-10-10-10-12-12-12-13-13-13-10-10-10-12-12-13-13-|
 B|-10-10-10-10-10-10-10-10-10-10-10-10-10-10-10-10-|

    Gm7
 e|-13-13-13-13-13-13-13-12-12-12-12-12-12-12-12-12-|
 B|-11-11-11-11-11-11-11-11-11-11-11-11-11-11-11-11-|

 G|-10-10-10-7-7/9-10-10-14-14-12-12/10-|
 D|-------------------------------------|
 A|-8--8--8--5-5/7-8--8--12-12-10-10/8--|

         Dm7
Verso 1: Que tu fuego queme
         Bb
         Que tu viento sople
         Dm7               Am7 (A5-E5-G5-A5)
         Tu poder queremos ver
         Dm7
         Tu presencia sane
         Bb
         Tu verdad libere
         Dm7                     C
         Que los cielos se abran hoy

         Em
Verso 2: Potestades caen
         C
         Principados huyen
         Em7              Bm7
         Ante ti glorioso rey
         Em
         Libres en tu muerte
         C
         Salvos por tu sangre
         Em             D
         Poderoso vencedor

      C
Coro: Santo, santo
      D
      Digno, digno
      C/E
      Santo, santo
      Bm7
      Fuerte eterno Dios

Intro.

Verso.

Coro.

Solo:

    C                                      D  Em
 B|-------------------------------------------12-|
 G|-12-12-12-12-12-12-12-12-12-12-12-12-12-14----|

                                              Bm7
 e|-------------------------------------------12----------|
 B|-12-12-12-12-12-12-12-12-12-12-12-12-15-15----15-12-15-|
 G|-------------------------------------------------------|

                  Am7                           C
 e|----------------------------------14b15r14-12----12----|
 B|-12h13p12-------------------------------------15-15b17-|
 G|----------14-12----12-12-------12----------------------|
 D|----------------14-------14-14-------------------------|

                D     Em
 e|-12----12----14----15----15----15----15----15----17-|
 B|-15b17-15b17-17b19-18b20-18b20-18b20-18b20-18b20----|

    Bm7
 e|-17-17-17-15-15-15-14-14-14----14-------------|
 B|----------------------------15----15-15-15----|
 G|-------------------------------------------14-|

    Am7
 B|-13-13-13-12-12-------------------------------------|
 G|----------------12-12-------------------------------|
 D|----------------------14-14-14-14-14-14-14-14-14-14-|

Coro.

Final:

    Em              D/F#
 G|-9-9-9-9-9-9-9-9-11-11-11-11-11-11-11-11-|
 D|-9-9-9-9-9-9-9-9-12-12-12-12-12-12-12-12-|
 A|-7-7-7-7-7-7-7-7-9--9--9--9--9--9--9--9--|

    G                       C
 G|-12-12-12-12-12-12-12-12-5-5-5-5-5-5-5-5-|
 D|-12-12-12-12-12-12-12-12-5-5-5-5-5-5-5-5-|
 A|-10-10-10-10-10-10-10-10-3-3-3-3-3-3-3-3-|

                    Em
 G|-5-5-5-5-5-5-5-5---|
 D|-5-5-5-5-5-5-5-5-2-|
 A|-3-3-3-3-3-3-3-3-2-|
 E|-----------------0-|

   Si quieren pueden hacer el final tocando solo las cuerdas G y D
   o la siguiente figura:

    Em              D/F#
 G|-9-9-9-9-9-9-9-9-11-11-11-11-11-11-11-11-|
 D|-9-9-9-9-9-9-9-9-9--9--9--9--9--9--9--9--|

    G               C
 G|-12-12-12-12-12-12-12-12-5-5-5-5-5-5-5-5-|
 D|-9--9--9--9--9--9--9--9--5-5-5-5-5-5-5-5-|

                    Em
 G|-5-5-5-5-5-5-5-5---|
 D|-5-5-5-5-5-5-5-5-2-|
 A|-----------------2-|
 E|-----------------0-|

   Eso sería todo, espero que les sirva. Escuchen bien el solo
   para ver la cantidad de veces que toca cada nota. Bendiciones.
Suggest correction
Give kudos to tab author, rate the tab!
1 2 3 4 5
comments
print report bad tab
guest
You may want to rate the tab now too:
select rating
Wanna post a correction for this tab? Suggest correction