Oops, an error
Loading. Please wait.

Queremos Ver Tab

version 2
version 2

Whole song

133 views 1 this week
no commentswrite comment
1 2 3 4 5
3 more votes to show rating
add to favorites
launch autoscroll
font size
0
reset
how to read this tab
guitar tuner
×
Best way to learn
"Queremos Ver"
Autoscroll
slow
fast
+/-
esc
set tempo
stop
:::::::::::::::::::INTRO:::::::::::::::::
   G5       D5        E5         C5
e|--------------------------------------|
B|--------------------12-13-12----------|
G|-12----12-14--12-12----------14-14-12-| (X2)
D|----12--------------------------------|
A|--------------------------------------|
E|--------------------------------------|

:::::::::::ESTROFA:::::::::::

  G5          D5         E5
Queremos a Cristo proclamar
              C5         G5
Como un estandarte levantar
             D5          E5
Que toda la gente pueda ver
                C5           RIFF 1
Que el es el camino al Cielo

            RIFF 1
e|-----------------------------|
B|-------------------15-17b----|
G|----------15-17-19--------19-|
D|-15-17-19--------------------|
A|-----------------------------|
E|-----------------------------|


       G5          D5         E5
     Queremos a Cristo proclamar
RIFF 2              C5         G5
     Como un estandarte levantar
                  D5          E5
     Que toda la gente pueda ver
                    C5
     Que el es el camino al Cielo

              RIFF 2
e|-------------------------------|
B|-------11-12-12-13-12----------|
G|-12/14----------------14-12-12-|
D|-------------------------------|
A|-------------------------------|
E|-------------------------------|

:::::::::::::CORO:::::::::::::::

 G5             D5            E5
   Queremos ver,  queremos ver
          C5         G5
   A Jesucristo como Rey

INTRO::::
ESTROFA::
CORO:::::

::::::::::::::::::::::::::::
        D5            E5
Paso a paso hacia el frente
        D5      E5
Poco a poco a ganar
        D5           E5
La oración las fortalezas
       C5         D5
Todas caen todas caen y caen y caen
     G5
Y caen

PUENTE: mismos acordes de la intro
CORO::: (X2)

:::::::FIN:::::::


               O.V.I.C.E
     "I.D.E.A" Iglesia Dios Es Amor
    La Fria Edo. Tachira - VENEZUELA
Suggest correction
Give kudos to tab author, rate the tab!
1 2 3 4 5
comments
print report bad tab
guest
You may want to rate the tab now too:
select rating
Wanna post a correction for this tab? Suggest correction