Oops, an error
Loading. Please wait.

Quiero Mirar Tu Hermosura Bass Tab

37 views 1 this week
no commentswrite comment
1 2 3 4 5
3 more votes to show rating
add to favorites
launch autoscroll
font size
0
reset
guitar tuner
×
Best way to learn
"Quiero Mirar Tu Hermosura"
Autoscroll
slow
fast
+/-
esc
set tempo
stop
4/4

VERSO
     W                   W                   W
G||-------------------|-------------------|-------------------|
D||--0----------------|-------------------|-------------------|
A||-------------------|--4----------------|--2----------------|
E||-------------------|-------------------|-------------------|
B||-------------------|-------------------|-------------------|


  W                   H        Q    E.  S    W
-------------------|----------------------|-------------------|
-------------------|----------------------|-------------------|
--0----------------|----------------------|--2----------------|
-------------------|--3--------L----L---3-|-------------------|
-------------------|----------------------|-------------------|


                                        PUENTE
  W                   W                   Q    E.  S H
-------------------|-------------------|----------------------|
-------------------|-------------------|----------------------|
-------------------|--0----------------|--2----L---2-2--------|
--0----------------|-------------------|----------------------|
-------------------|-------------------|----------------------|


  Q    E.  S H           Q    E.  S Q    Q       Q    E.  S H
----------------------|-----------------------|----------------------|
----------------------|------------------2----|----------------------|
----------------------|-----------------------|--0----L---0-0--------|
--3----L---3-3--------|--0----L---0-0---------|----------------------|
----------------------|-----------------------|----------------------|


  Q    E.  S H           Q    E.  S H
----------------------|----------------------|
----------------------|----------------------|
--2----L---2-2--------|----------------------|
----------------------|--3----L---3-3--------|
----------------------|----------------------|


                                                  CORO
  Q    E.  S Q    E.  S    H.           S S S S    H        H
------------------------|-----------------------|--------------------|
------------------------|-----------------------|--------------------|
------------------------|--0--------------------|-----------0--------|
--0----L---0-0----L---0-|---------------2-3-2-2-|--3-----------------|
------------------------|-----------------------|--------------------|


  Q    E.  S H           H        H           Q    E.  S H
----------------------|--------------------|----------------------|
----------------------|--------------------|--0----L--------------|
--2----L---2-2--------|-----------0--------|----------------------|
----------------------|--3-----------------|-----------0-2--------|
----------------------|--------------------|----------------------|


  H        H           Q    E.  S Q    E  S S
--------------------|-------------------------|
--------------------|---------------------0---|
-----------0--------|--2----L---2-2----L----2-|
--3-----------------|-------------------------|
--------------------|-------------------------|


  Q    E.  S Q    E.  S    W
------------------------|-------------------||
--2----L----------------|--0----------------||
-------------0----L---0-|-------------------||
-----------0------------|-------------------||
------------------------|-------------------||


Duration Legend
---------------
W - whole
H - half
Q - quarter
E - 8th
S - 16th
T - 32nd
X - 64th
. - note dotted
|-n-|  - n-tuplets
Suggest correction
Give kudos to tab author, rate the tab!
1 2 3 4 5
comments
print report bad tab
guest
You may want to rate the tab now too:
select rating
Wanna post a correction for this tab? Suggest correction