Oops, an error
Loading. Please wait.

Quiero Mirar Tu Hermosura Tab

version 2
version 2

Whole song

112 views 3 this week
no commentswrite comment
1 2 3 4 5
3 more votes to show rating
add to favorites
launch autoscroll
font size
0
reset
how to read this tab
guitar tuner
×
Best way to learn
"Quiero Mirar Tu Hermosura"
Autoscroll
slow
fast
+/-
esc
set tempo
stop
PRELUDIO: (ESTAS NOTAS DE LA GUITARRA ELÉCTRICA SON ARMÓNICAS)

 D2          G    D2  G    Bm   A    G Bm             A  G
e-14-15-----9-7-10---9---10-12-7-5-10-----------9-9-----10-10-9-9-14-14----
B-------3-5--------3---3----------------8-8-7-7-----7-7-----------------7-7

INTRO (LA MAYORÍA DE LAS NOTAS DE GUITARRA ELÉCTRICA SON ARMÓNICAS,
EXCEPTO LAS NOTAS DEL RIFF PRINCIPAL. ESTAS SON CON VIBRATO)

e------7-9-10-9-7----7---7----7-9-10-9-7----7-----7-9-10-9-7----7---7--
B-8-8-------------10---7-----------------10---7--------------10---7----
G----------------------------------------------------------------------

e----------------------------------7---7-9-10-9-7----7---7----------
B---8-8-8-10-10-10-10-10---7-10-------------------10---7------------
G-------------------------------------------------------------------

e---7-9-10-9-7----7-----7-9-10-9-7----7---7-------------------------
B--------------10---7--------------10---7-----8-8-7-----------------
G---------------------------------------------------9---7-6-7-------

INTRO: G, A, Bm - G, A, D - G, A, Bm - Em, A, D

ESTROFA 1:
D               A                G      A
Dios, me abro a Ti, me entrego a ti, Jesús
          G               Bm
Estoy dispuesto y en tus manos
          Em     A
Lo rindo todo, Señor

PRECORO 1:
  Bm            G             E-10-12----
Abre mis ojos, déjame verte   B-------8--
Em               G            A      E--7-5-3-2--9----
Quita las vendas que me han cegado   B-------------7--
  Bm            G               E--9-10-----14-15------
Abre mis ojos, yo quiero verte  B-------7---------12---
Em                G          A      E--12-14-17--
Muestra tu Gloria y tu gran bondad  B------------

CORO 1: (GUITARRA ELÉCTRICA HACE LO MISMO QUE EN EL INTRO)
G        A         Bm     G         A         D
Quiero mirar tu hermosura Y contemplar tu Majestad
G        A         Bm
Abre mis ojos, Jesucristo      (Sólo cambia esto:)
Em         A          D        B--8-8-7------------
Muestra tu Gloria y tu bondad  G--------9---7-9-7--

ESTROFA 2:
D               A                G      A    E--10-7-9--
Dios, me Abro A Ti, me entrego a ti, Jesús   B----------
          G               Bm     E----------------
Estoy dispuesto y en tus manos   B--0-2-3--3-5-7--
          Em     A    E-------------
Lo rindo todo, Señor  B--7-8-10-10--

PRECORO 2:
  Bm            G            E--9-10-----14-15------
Abre mis ojos, déjame verte  B-------7---------12---
Em               G            A      E--12-10pf9-7--
Quita las vendas que me han cegado   B--------------
  Bm            G               E--10-9-----7-9------
Abre mis ojos, yo quiero verte  B-------7-------7s8--
Em                G          A      E--9-10-12-14--
Muestra tu Gloria y tu gran bondad  B--------------

CORO 2: (guitarra eléctrica hace lo mismo que en el intro)
G        A         Bm
Quiero mirar tu hermosura
G         A         D
Y contemplar tu Majestad (Agrega esto al final del riff regular:)
G        A         Bm      E--9-10-9-----7-------------------
Abre mis ojos, Jesucristo  B-----------7---8---8-8-10-10-10--
Em         A          D        E--7-9-10-9-10---------10-7--
Muestra tu Gloria y tu bondad  B--------------7---7-8-------
Suggest correction
Give kudos to tab author, rate the tab!
1 2 3 4 5
comments
print report bad tab
guest
You may want to rate the tab now too:
select rating
Wanna post a correction for this tab? Suggest correction