Oops, an error
Loading. Please wait.

Rey De Gloria Tab

version 1
version 1

Whole song

505 views 9 this week
no commentswrite comment
1 2 3 4 5
1 last vote to show rating
add to favorites
launch autoscroll
font size
0
reset
how to read this tab
guitar tuner
×
Best way to learn
"Rey De Gloria"
Autoscroll
slow
fast
+/-
esc
set tempo
stop
Hola ha Todos Espero Que Le entiendan este es El Solo
De la cancion Rey De Gloria

1-------------------------------------------
2---12-10h12s14-----12h10s14-17-16-14s12h14-s
3-------------------------------------------
4-------------------------------------------
5-------------------------------------------
6-------------------------------------------

1-------------------------------------------
2--21---14-12-14-12-------------------------
3-------------------16-16-14-13-------------
4-------------------------------16-14-------
5-------------------------------------16-14-
6-------------------------------------------

1-------------------------------------------
2----------------------------14-16-17-19--21s
3---------------------1314-16----------------
4---------------14-16------------------------
5---------14-16------------------------------
6---16-14------------------------------------

1-------12-12-12-12h14s16-----
2----14------------------------
3-----------------------------
4-----------------------------
5-----------------------------
6-----------------------------

1----19-19-19-19-19-19-19-19-19-19-17h19s21-16-21-21-21s24--final
2--------------------------------------------
3--------------------------------------------
4--------------------------------------------
5--------------------------------------------
6--------------------------------------------


espero que le entiendan donde hay muchos 19s
solo toquenla de ariba a bajo barias beces y
veran que sale
cualquier pregunta
escribanme a mi correo que es. marco_deanda@
dios les bendiga y un saludo
ala [iglesia maranatha de longmont colorado]
Suggest correction
Give kudos to tab author, rate the tab!
1 2 3 4 5
comments
print report bad tab
guest
You may want to rate the tab now too:
select rating
Wanna post a correction for this tab? Suggest correction