Oops, an error
Loading. Please wait.

Rey De Gloria Tab

version 2
version 2

Whole song

276 views 1 this week
no commentswrite comment
1 2 3 4 5
3 more votes to show rating
add to favorites
×
Save as Personal and add changes to this tab that will be seen only by you. Learn more ›
×
You can save this tab as Personal to edit and correct it or add notes. All changes will be seen only by you. Learn more »
save as personal
new!
launch autoscroll
font size
0
reset
how to read this tab
guitar tuner
Autoscroll
slow
fast
+/-
esc
set tempo
stop
Hola que tal... bueno aqui les dejo el solo con algunas correcciones...
Espero y les sirva.
BENDICIONES!

NOTA: ESCUCHEN BIEN LAS DURACIONES DE LAS NOTAS Y DE LOS BENDS
      EL NUMERO ENTRE PARENTESIS; SON LAS VECES QUE SE TOCA LA NOTA

e---------------------------------------------|
B-------------------------------------14v-14v-|
G-------------------14h16-16(7)-14-16---------|
D-------------14h16---------------------------|
A-------14h16---------------------------------|
E-12h14---------------------------------------|

e---------------------11b12-11b12r11--------------14s16-16v-16v-|
B-12p10-12s14-14v-14v----------------12p10s14-14v---------------|
G---------------------------------------------------------------|
D---------------------------------------------------------------|
A---------------------------------------------------------------|
E---------------------------------------------------------------|


e-------------------------------------------|
B-14p12h14-12--12-12-10A-9h10p9-------------|
G-------------------------------11-9-9h11p9-|
D-------------------------------------------|
A-------------------------------------------|
E-------------------------------------------|

e-------------------------------------------------|
B-------------------------------------------------|
G----9---------------------------------------9----|
D-11---11-9-11-9----9------------------9h11-------|
A----------------11---11-9-11---7s9h11------------|
E-------------------------------------------------|

e----------------------------------------14s16-16v-16v-|
B-----------------12s14-14v--12h14-16h17---------------|
G-11p9----9-11s13--------------------------------------|
D------11----------------------------------------------|
A------------------------------------------------------|
E------------------------------------------------------|


e---------11b12-11b12-11b12--11s14-16v-16v--16v-16v----19(16)-16-19-|
B-14v-14v-----------------------------------------------------------|
G-------------------------------------------------------------------|
D-------------------------------------------------------------------|
A-------------------------------------------------------------------|
E-------------------------------------------------------------------|

e--19b21-19b21-19b21-21r19--19p16-19b21-21r19--19p16-19b21--21b23--|
B------------------------------------------------------------------|
G------------------------------------------------------------------|
D------------------------------------------------------------------|
A------------------------------------------------------------------|
E------------------------------------------------------------------|

e-24v-24v-24v-24v-24v?24//0-|
B---------------------------|
G---------------------------|
D---------------------------|
A---------------------------|
E---------------------------|

Cualquier duda o comentario.. Ahi esta mi correo
DIOS LOS BENDIGA
Suggest correction
Give kudos to tab author, rate the tab!
1 2 3 4 5
comments
print report bad tab
guest
Wanna post a correction for this tab? Suggest correction