Oops, an error
Loading. Please wait.

Te Exaltamos Tab

28 views 1 this week
no commentswrite comment
1 2 3 4 5
3 more votes to show rating
add to favorites
launch autoscroll
font size
0
reset
how to read this tab
guitar tuner
Autoscroll
slow
fast
+/-
esc
set tempo
stop
Help us to improve Ultimate-Guitar.com Take our survey!
×
Esta rola la vdd..llega y llega musho..mas por todos los efectos
que le meten en el sintetizador..neta que la hacen chido..

como siempre le digo..escuchen la cancion antes de tratar de tocarla.!

esta cancion de super bendicion para mi vida y espero que sea
 para la de ustedes
y el solo ps..esta medio complicado pero ps funciona si tiene un pedal
Wha..porque ese es el efecto que le mete ..""Justin""..

Bueno sin mas..cualquier duda o comentario... bggs15@

ese es mi mail..Coatza Ver,, Monte Hermon .. saludos a la raZa..

Bendiciones

TE EXALTAMOS


Intro: E,G#m,F#m,B,C#m

       E             G#m            F#m
Te Exaltamos, Te Exaltamos, Te Exaltamos

B       C#m
  Oh Señor

.....

Aqui esta la parte de la guitarra!!..esta parte
solamente se hace dos veces..la guitarra y el bass
hacen lo mismo..y el sintetizador o teclado
marcan la nota:

C#m

E ------------------------------
A -------------7----------------
D ----------6---4-6-6h7---------
G -4h6---4-6------------4-4~----
B ----5-4-----------------------
e ------------------------------

E --------------------------------
A -----------------------7--------
D ----------6---------6---4-6-7---
G -4h6---4-6-----4-6-4------------
B ----5-4-----5-4-----------------
e --------------------------------

Aqui esta el solo de la guitarra!!

Aki el efecto de la guitarra como lo notaran es Wha!,,

escuchen la cancion para saber donde va el U..y en donde ace A..
...

Aki el bass y el sintetizador van juntos..hacen

C#m (x3) C#m - E - F#
Escuchen bien en que parte va..para que sea el acompañamiento


E ---------------------------------------------------------12-9-
A -------------------------------------------------11-10-9------
D ----------------------------------------9-s11--9--------------
G ------------s13--13-12-11-11-9-9b11r9-8-----------------------
B -s12s14-14-----12---------------------------------------------
e --------12----------------------------------------------------

E ------------------------------------
A ------------------------------------
D ------------------------------------
G -----------------------14-----------
B ------------14-12h14-12--14---------
e -12b14r12-12------------------------

E -------------------------------------------
A -------------------------------------------
D -------------------------------------------
G ------14-----------------------------------
B -14-12--12-14--14-----------------14-------
e -------------12--12-14b16r14-12h14---------

E -------------------------------------------
A -------------------------------------------
D -------------------------------------------
G -------------------------------------------
B -14-12-14--14-12--------------14-12h14-----
e ---------12-----14b16-12h14-12-------------

E -------------------------------------------
A -------------------------------------------
D -------------------------------------------
G -------------------------------------------
B -14-14-14-12-14--------------------14------
e ---------------12-14b16r14-12h14-12---12---

E ------------------------------------------------------------
A ------------------------------------------------------------
D ------------------------------------------------------------
G ------------------------------------------------------------
B ---------16-14-12----------16-14-12---------16-14-12--------
e -16-14-12---------16-14-12----------16-14-12---------14s16--


E ------------------------------------------
A ------------------------------------------
D ---------------11-9h11-11------------11~--
G ----------11-9--------9---11b13r11-9------
B -----12-9---------------------------------
e -12-9-------------------------------------

Bueno sin mas por el momento ps espero que les funcione como a mi
y espero sus comentarios,dudas o lo que sea:P jajaja agradecimientos
en

bggs15@

BENDICIONES...

SALUDOS A LA RAZA:d

saludos su amigo JORge! Coatza Ver.. Monte Hermon:D
Suggest correction
Give kudos to tab author, rate the tab!
1 2 3 4 5
comments
print report bad tab
guest
You may want to rate the tab now too:
select rating
Wanna post a correction for this tab? Suggest correction