Oops, an error
Loading. Please wait.

Te Rindo Mi Vida Tab

version 1
version 1

Whole song

46 views 3 this week
no commentswrite comment
1 2 3 4 5
3 more votes to show rating
add to favorites
launch autoscroll
font size
0
reset
how to read this tab
guitar tuner
Autoscroll
slow
fast
+/-
esc
set tempo
stop
Help us to improve Ultimate-Guitar.com Take our survey!
×
INTRO:e---------------------------------------------------------
      B---------------------------------------------------------
      G--8--10--10----8--10--10---------------------------------HACEN
      D---------------------------------8--10--10----8--10--10--ESTO 4
      A---------------------------------------------------------VECES
      E---------------------------------------------------------

Cm - Bb x4

 Cm               Bb
Solo deseo tu presencia
     Ab
No puedo esperar contigo llegar
   Cm                      Bb
Vengo a entregarme en tus brazos
     Ab
Te quiero adorar no hay otro como Tù

Coro

Eb        Bb              F
En tu presencia quiero estar
Eb             Bb             F
Rendido a tus pies quiero adorar
       Eb        Bb              F
Me entrego me humillo ante tu altar
    Eb      Bb            F
Te rindo mi vida una vez mas

 Cm-Eb-Cm-F x2
 Fm-Cm-F x4
e---------------------
B---------------8-----
G-8--10--10-----10--8-    ESTO LO HACE 2 VECES
D---------------------    LA GUITARRA AL TERMINAR
A---------------------    EN ?F? CADA FRASE DE ARRIBA
E---------------------


   Cm
Te rindo mi vida
       Eb
Me entrego a tu guia
    Cm                F
Me postro ante tu presencia
      Cm
Me entrego a ti Cristo
     Eb
Como un sacrificio
  Cm                 F
Acepta mi humilde ofrenda

ESTE ES EL PUENTE DE LA GUITARRA
e------------------------------------------------
B----------------8-------------------------------
G--8--10--10------10--8---------------7----------
D----------------------------8--10--10-----10--8-
A------------------------------------------------
E------------------------------------------------

e-------------------------------------------
B-------------------------------------------
G-------------------------------------------
D------------5--------------------5---------
A------6--8--8-----8--6---6--8--8----8--6---
E-------------------------------------------


bueno aqui estan los acordes originales de las partituras!
Suggest correction
Give kudos to tab author, rate the tab!
1 2 3 4 5
comments
print report bad tab
guest
You may want to rate the tab now too:
select rating
Wanna post a correction for this tab? Suggest correction