Oops, an error
Loading. Please wait.

Te Rindo Mi Vida Tab

version 2
version 2

Whole song

19 views 1 this week
no commentswrite comment
1 2 3 4 5
3 more votes to show rating
add to favorites
×
Save as Personal and add changes to this tab that will be seen only by you. Learn more ›
×
You can save this tab as Personal to edit and correct it or add notes. All changes will be seen only by you. Learn more »
save as personal
new!
launch autoscroll
font size
0
reset
how to read this tab
guitar tuner
Autoscroll
slow
fast
+/-
esc
set tempo
stop
 HOLA A TODA [ch]A[/ch] BANDA DE LA CUERDA  AQUI MANDO OTRA CANCION PARA QUE
 SE DEN UNA IDEA DE COMO VA ESTA CANCION


  INTRO:

   --------------6s8--6s8------------------------E
   ---6s8--6s8---xsx--xsx------------------------A
   ---xsx--xsx---6s8--6s8------------------------D
   ---6s8--6s8-----------------------------------G
   ----------------------------------------------B
   ----------------------------------------------E  x4

 verso:
 Cm                 A*
 solo deseo tu prescencia
      G*
 no puedo esperar contigo llegar
 Cm                          A*
 vengo a entregarme en tus brazos
      G*
 te quiero adorar no hay otro como tu


  coro:
 D*          A*             F
 en tu prescencia quiero estar (riff )
 D*             A*            F
 rendido a tus pies quiero adorar (riff)
       D*         A*               F
 me entrego me humillo  ante tu altar(riff)
     D*       A*           F
 te rindo mi vida una vez mas(riff)


 este es el riff :

 -------------------------------------------------E
 ---6-8-8--10---8--6-----6-8-8--10--8--6----------A
 ---x-x-x---x---x--x-----x-x-x---x--x--x----------D
 ---6-8-8--10---8--6-----6-8-8--10--8--6----------G
 -------------------------------------------------B
 -------------------------------------------------e


  intro x2

 (verso)

 (coro)

 puente:
     Cm
 te rindo mi vida
       D*
 me entrego a tu guia
     Cm                   F
 me postro ante tu prescencia
       Cm
 me entrego a ti Cristo
       D*              Cm                 F
 como un sacrificio  acepta mi humilde ofrenda


  intermedio: x4

  -----------------------------------------------------------------E
  -----------------------------------------------------------------A
  -----------------------------------1--3-3-5--3--1---1-3-3-5-3-1--D
  ----------------------3-5-5---5-3--------------------------------G
  ----4-6-6-----6--4----------3------------------------------------B
  ----------3------------------------------------------------------e


  Cm........

  (puente)x2

  (coro)


  final: usa el mismo punteo del intermedio 2 veces y luego un
         golpe fuerte en cm


  SALUDOS A TODO LA BANDA DE LA IGLESIA CENTRO FAMILIAR CRISTIANO
 PAGIEL DE  Y DE RIO VERDE

 HoPe ViSiOn BaNd de pagiel
 saludos a mis cuates josue nando erick oscar rosa brenda teo areli
 y los que faltan............
Suggest correction
Give kudos to tab author, rate the tab!
1 2 3 4 5
comments
print report bad tab
guest
Wanna post a correction for this tab? Suggest correction