Oops, an error
Loading. Please wait.

Transformados Bass Tab

42 views 1 this week
no commentswrite comment
1 2 3 4 5
2 more votes to show rating
add to favorites
launch autoscroll
font size
0
reset
guitar tuner
Autoscroll
slow
fast
+/-
esc
set tempo
stop
Help us to improve Ultimate-Guitar.com Take our survey!
×
Bueno amigos, aqui les dejo los tabs
de la canción transformados de Marco Barrientos
les pido que escuchen con atencion el bajo electrico de la música
me esforcé para ponerselos tal cual como se oye en la canción original


Escala: Do mayor

Intro
Am ? F ? C ? G
Los puntos ????? quieren decir que es un let ring
   Am              F                  C               G
G|--------------------------------------------------------------------------|
D|--------------------------------------------------------------------------|
A|-----------------8-8-8-8-8?????8--------------------10-10-10-10????-------|
E|-5-5-5-5?????5----------------------8-8-8-8?????8-------------------------|
(x4)


Verso I
   Am                           F
           Transformados por el fuego de tu amor
D|--------------------------------------------------------------------------|
A|--------------------------------------------------------------------------|
E|-5-5-5-5--------------5-5-----1-1-1-1--------------1-1--------------------|

  (E)                           G
           Por el brillo de tu rostro
D|-3-3-3-3------------------------------------------------------------------|
A|------------------------------------------------------2-------------------|
E|----------------------0-0-----3-3-3-3-------3-1-0-1-3---3-----------------|

   Am                           F                            c
           Por      la     pasión ,        de   tu   co ra zón
D|--------------------------------------------------------------------------|
A|------------------------------------------------------------2-2-2-2-------|
E|-5-5-5-5--------------5-5-----1-1-1-1--------------1-1--------------------|

   G
   Je    sús. . .
D|--------------------------------------------------------------------------|
A|-2-2----------------------------------------------------------------------|
E|---------3-3---3--3-3---3-3-3---------------------------------------------|


Coro
   C       Bm7       G               F
   So      mos      trans for ma     dos
D|------------------5-5-5-5???5-5-5---3??3-3-----3??3-3??3-3h5--------------|
A|-3-3-3-3-2-2-2-2s---------------------------------------------------------|
E|--------------------------------------------------------------------------|

   C       Bm7       G                Dm
   Al      mi       rar  te      Dios
D|------------------5-5-5-5???5-5-5-----------------------------------------|
A|-3-3-3-3-2-2-2-2s-------------------5??5-5-----5??5-5??5-5h7--------------|
E|--------------------------------------------------------------------------|
   C       Bm7       G                F
   Da      nos      tus  pa     la    bras
D|------------------5-5-5-5???5-5-5---3??3-3-----3??3-3??3-3h5--------------|
A|-3-3-3-3-2-2-2-2s---------------------------------------------------------|
E|--------------------------------------------------------------------------|

   (E)                       G
   Nos          mas   de     ti?
G|-2-2-2-2---2--------------------------------------------------------------|
A|--------------------------------------------------------------------------|
E|--------------0-0-0-0---0--3-3-3-3---3---3---3-3-3-3-3--------------------|


Un intermedio
   Am              F               C                   [(C)(G)]
D|--------------------------------------------------------------------------|
A|--------------------------------------------------------------------------|
E|-5-5-5-5ssssssss(1)---5h7-5h7-----8-8-8-8sssss(3)-----7h8-7h8-------------|
(x2)


El siguiente verso es igual al anterior

Verso II
Am                     F
Transformados por el precio de la cruz
E                     G
Por lo imenso de tu amor
Am               F                C
No podemos vivir, un segundo sin ti
   G
jesús


Coro
C       G       F
Somos transformados
C      G       Dm
Al mirarte Dios
C      G         F
Danos tus palabras
     Em           G
Llenanos mas de ti

A la segunda vez ?somos tranformados? Aquí cambia un poco al final
  Así:

Somos transformados
Al mirarte Dios
Danos tus palabras

 (E)                       G
(llena)   Nos          mas   de     ti?
       G|-2-2-2-2---2---------------5-5-5-5---5---5---5-5-5-5-5-------------|
       A|-------------------------------------------------------------------|
       E|--------------0-0-0-0---0------------------------------------------|

Bueno aquí va a ser un poco complicado, les sugiero que oigan bién la canción
para que se guíen, suena mas o menos así

 Am             F                  C                 G
                 Nunca pasará                          nunc a pasará
G|--------------------------------------------------------------------------|
D|----------------------------------------10---10---------------------------|
A|---------------8-8--8--8-8h10--------10---------------10-10--10--10-10----|
E|-5-5--5--5-5--------------------8-8--------------8------------------------|

  Am                   F                   C                 G
                 Tu amor por mi                  tu amor por mi
|-----------------------------------------------------------------------------|
|-------10------------------10---------------------10---10--------------------|
|-12-12----12---12------8-8----8---8-8h10-------10------------10-10--10--10-10|
|-------------------------------------------8-8------------8------------------|


Am             F                  C                 G
                 Nunca pasará                          nunc a pasará
G|--------------------------------------------------------------------------|
D|----------------------------------------10---10---------------------------|
A|---------------8-8--8--8-8h10--------10---------------10-10--10--10-10----|
E|-5-5--5--5-5--------------------8-8--------------8------------------------|
   Am                   F                   C             G
                 Tu amor por mi                  tu amor por mi
|---------------------------------------------------------------------------|
|-------10------------------10---------------------10-----------------------|
|-12-12----12---12------8-8----8---8-8h10-------10--------10--10-10-10-10...|
|-------------------------------------------8-8-------8---------------------|

  A           F        C               G
        Lara lara lara ?
|----------------------------------9----------------------------------------|
|------7--5--------------------10-------------------------------------------|
|------------8--7--5-------10--------8h10-10-10-8h10-10-10------------------|
|-5-5-----------------8--8--------------------------------------------------|

y bueno aquí tienen espero que lo disfruten y que toda la gloria sea para
 El Rey de los cielos
un saludo a la iglesia "Casa del Rey" en B/quilla
¡Bendiciones!
Suggest correction
Give kudos to tab author, rate the tab!
1 2 3 4 5
comments
print report bad tab
guest
You may want to rate the tab now too:
select rating
Wanna post a correction for this tab? Suggest correction