Oops, an error
Loading. Please wait.

Tu Gloria Tab

82 views 1 this week
no commentswrite comment
1 2 3 4 5
2 more votes to show rating
add to favorites
×
Save as Personal and add changes to this tab that will be seen only by you. Learn more ›
×
You can save this tab as Personal to edit and correct it or add notes. All changes will be seen only by you. Learn more »
save as personal
new!
launch autoscroll
font size
0
reset
how to read this tab
guitar tuner
Autoscroll
slow
fast
+/-
esc
set tempo
stop
Intro:
E]15(2)-12-10-12(2)-------12-10-12-(2)-------12-10-12(2)--10--10-------
B]-----------------13(2)-------------13(2)--------------13--------13-12
G]----------------------12-----------------12---------------12--12-----
D]--------------------------------------------------------------------- X2
A]---------------------------------------------------------------------
E]---------------------------------------------------------------------

SOLO #1

E]-----------15(3)--10-12-10--15(3)--10-12-10--15(3)--10-12-10--10-----15--15
B]13(4)-15-17-----13--------13-----13--------13-----13--------13--12-13--12--
G]---------------------------------------------------------------------------
D]---------------------------------------------------------------------------
A]---------------------------------------------------------------------------
E]---------------------------------------------------------------------------

E]--19(3)-17(2)-15(2)--19(3)-17(2)-15(2)--19(3)-20(2)-15(2)-10(4)-12-15-12--
B]12-----------------13-----------------13--------------------------------13
G]--------------------------------------------------------------------------
D]--------------------------------------------------------------------------
A]--------------------------------------------------------------------------
E]--------------------------------------------------------------------------

SOLO #2
E]15(3)-12-10-12-10----------12-10-12-10---------12-10-12-10----10(4)
B]------------------13(2)----------------13(2)---------------13------
G]------------------------12-------------------12--------------------
D]-------------------------------------------------------------------
A]-------------------------------------------------------------------
E]-------------------------------------------------------------------

E]19(8)-17(4)-15(2)--19(8)-17(4)-15(2)--20(8)-17(4)-15(4)-10(6)-12(2)-15(4)
B]---------------- 13-----------------13-----------------------------------
G]-------------------------------------------------------------------------
D]-------------------------------------------------------------------------
A]-------------------------------------------------------------------------
E]-------------------------------------------------------------------------

E]12(3)
B]-----
G]-----
D]-----
A]-----
E]-----

E]19(8)-17(4)-15(2)--19(8)-17(4)-15(2)--19(8)-17(4)-15(4)-10(6)-12(2)-15(4)
B]-----------------13-----------------13-----------------------------------
G]-------------------------------------------------------------------------
D]-------------------------------------------------------------------------
A]-------------------------------------------------------------------------
E]-------------------------------------------------------------------------

E]12(3)
B]-----
G]-----
D]-----
A]-----
E]-----

Bendiciones 
Suggest correction
Give kudos to tab author, rate the tab!
1 2 3 4 5
comments
print report bad tab
guest
Wanna post a correction for this tab? Suggest correction