Oops, an error
Loading. Please wait.

Victoria Bass Tab

38 views 1 this week
no commentswrite comment
1 2 3 4 5
3 more votes to show rating
add to favorites
launch autoscroll
font size
0
reset
guitar tuner
Autoscroll
slow
fast
+/-
esc
set tempo
stop
Help us to improve Ultimate-Guitar.com Take our survey!
×
Esta canción se la dedico a mis amores Sonny y Chitito, Dios los bendiga ;)
Está muy fácil solo escúchenla bien y practiquen.
Cualquier duda contáctenme a queenpluss@

Afinación estándar
G|----------|
D|----------|
A|----------|
E|----------|


-------------------------------------|
-------------------------------------| x7
-------------0---1---2-3-1-3---------|
--3---3--------------------------1-2-|

--3----2--0---------------------------|
---------------3----2----0------------|
------------------------------3--1----|
--------------------------------------|


------------------------------|--------------------------------------|
------------------------------|--------------------------------------|
-----------1-2-3---3----------|--------------1-2---3---3-------------|
--3---3-----------------1-2---|--3---3---------------------1---1-2---|

------------------------------|------------------------------|
----------------2-------------|--0---0---------0-----0----0--|
----------1-2-3-----------3-4-|----------0-2-3---4--------5--|
--3---3-----------------------|------------------------------|

----------------------------|--------------------------------|
--2-------1-------0---------|--------------------------------|
----------------------------|--3---3------3---4---4-----4----|
-----------------------3----|-----------3--------------------|

----------------------------|--------------------------------------0-|
--0----2---------------0----|--------------------0---2----3----4-----|
---------------0------------|-------2----3---4-----------------------|
----------------------------|--3-------------------------------------|

-----------------------------------|------------------------------------|
-----------------------------------|------------------------------------|
--------------1-2-3---3------------|--------------1-2-3---3-------------|
--3---3--------------------1---2---|--3---3-----------------------1-2---|

-----------------------------|----------------------------------|
-------------------------2-1-|--0---0----------0-----0-------0--|
------------1-2-3---3--------|-----------0-3-----4--------------|
--3---3----------------------|----------------------------------|

----------------------------------|---------------------------------|
--2---2----1---1--0---0-----------|---------------------------------|
----------------------------------|--3---3-------3---4---4-----4----|
---------------------------3---3--|------------3--------------------|

----------------------------|-------------------------------|
--0----2------------0-------|-------------------------------|
---------------0------------|-------------------------------|
----------------------------|--3---3---3-----0-3------------|

------------------------------|--------------------------------------|
------------------------------|--------------------------------------|
-----------1-2-3---3----------|--------------1-2---3---3-------------|
--3---3-----------------1-2---|--3---3---------------------1---1-2---|

----------------------------|----------------------------|
----------------2----2------|--0---0-----0----0----------|
----------1-2-3---------3-4-|----------------------------|
--3---3---------------------|----------------------------|

----------------------------|--------------------------------|
--2-------1-------0---------|--------------------------------|
----------------------------|--3---3------3---4---4-----4----|
-----------------------3----|-----------3--------------------|

----------------------------|--------------------------------0----|
--0----2---------------0----|-------------------0-----3----3------|
---------------0------------|-----2---3----4----------------------|
----------------------------|--3----------------------------------|

-----------------------------------|------------------------------------|
-----------------------------------|------------------------------------|
--------------1-2-3---3------------|--------------1-2-3---3-------------|
--3---3--------------------1---2---|--3---3-----------------------1-2---|

-----------------------------|----------------------------------|
-------------------------2-1-|--0---0----------0-----0-------0--|
------------1-2-3---3--------|-----------0-3-----4--------------|
--3---3----------------------|----------------------------------|

----------------------------------|---------------------------------|
--2---2----1---1--0---0-----------|---------------------------------|
----------------------------------|--3---3-------3---4---4-----4----|
---------------------------3---3--|------------3--------------------|

----------------------------|-------------------------------|
--0----2------------0-------|-------------------------------|
---------------0------------|-------------------------------|
----------------------------|--3---3---3-----0-3------------|

------------------------------|--------------------------------------|
------------------------------|--------------------------------------|
-----------1-2-3---3----------|--------------1-2---3---3-------------|
--3---3-----------------1-2---|--3---3---------------------1---1-2---|

----------------------------|----------------------------|
----------------2----2------|--0---0-----0----0----------|
----------1-2-3---------3-4-|----------------------------|
--3---3---------------------|----------------------------|

----------------------------|--------------------------------|
--2-------1-------0---------|--------------------------------|
----------------------------|--3---3------3---4---4-----4----|
-----------------------3----|-----------3--------------------|

----------------------------|--------------------------------0----|
--0----2---------------0----|-------------------0-----3----3------|
---------------0------------|-----2---3----4----------------------|
----------------------------|--3----------------------------------|

-----------------------------------|------------------------------------|
-----------------------------------|------------------------------------|
--------------1-2-3---3------------|--------------1-2-3---3-------------|
--3---3--------------------1---2---|--3---3-----------------------1-2---|

-----------------------------|----------------------------------|
-------------------------2-1-|--0---0----------0-----0-------0--|
------------1-2-3---3--------|-----------0-3-----4--------------|
--3---3----------------------|----------------------------------|

----------------------------------|---------------------------------|
--2---2----1---1--0---0-----------|---------------------------------|
----------------------------------|--3---3-------3---4---4-----4----|
---------------------------3---3--|------------3--------------------|

----------------------------|--------------------------------0----|
--0----2------------0-------|-------------------0-----3----3------|
---------------0------------|-----2---3----4----------------------|
----------------------------|--3----------------------------------|

----------------------------------|---------------------------------|
--2---2----1---1--0---0-----------|---------------------------------|
----------------------------------|--3---3-------3---4---4-----4----|
---------------------------3---3--|------------3--------------------|

----------------------------|--------------------------------0----|
--0----2------------0-------|-------------------0-----3----3------|
---------------0------------|-----2---3----4----------------------|
----------------------------|--3----------------------------------|

----------------------------------|-------------------------|
--2---2----1---1--0---0-----------|-------------------------|
----------------------------------|--3---3------------------|
---------------------------3---3--|------------3-8----------|

----------------------||
----------------------||
----------------------||
--3-------------------||
Suggest correction
Give kudos to tab author, rate the tab!
1 2 3 4 5
comments
print report bad tab
guest
You may want to rate the tab now too:
select rating
Wanna post a correction for this tab? Suggest correction