Oops, an error
Loading. Please wait.

De Bestemming Chords

14,013 views 18 this week
no commentswrite comment
1 2 3 4 5
accurate
x 4
add to favorites
launch autoscroll
font size
0
reset
transpose
0
reset
simplify chords
display chords
guitar tuner
Autoscroll
slow
fast
+/-
esc
set tempo
stop
Help us to improve Ultimate-Guitar.com Take our survey!
×
Author
INTRO: G

(als refrein)
e|------------------------|------7--------------------|-------------------------|
B|-10-7-8-----7-----------|--10-----8-----7-----------|-10-7--8-----7-----------|
G|---------------9--7-----|------------------9--7--7--|----------------9--7-----|
D|---------------------9--|---------------------------|----------------------9--|
A|------------------------|---------------------------|-------------------------|
E|------------------------|---------------------------|-------------------------|

e|----------------------------------|--|
B|----------------------------------|--|
G|---7------------------------------|--|
D|-7---9----------------------------|--|
A|--------10---7---5---5- 5/10-10---|--|
E|----------------------------------|--|

G
Ik lig op m'n rug in het gras
   C/B          C
En aanschouw de maan
   G
Ik vraag haar of zij misschien weet
      C/B   D
Waarom wij bestaan
  G
Waarom we worden geboren
    C/B       C
En straks weer gaan
         C
Maar ze zwijgt
            D       G
En kijkt me lachend aan

Chorus:
         C
Laat me zien
     D         G
Waar ik voor leef
        Em
Laat me voelen
D       G
Wat ik geef
    Em         C      G
Een moment zodat ik weet
     D    G         C
Dat alles niet voor niets is
   D       C              D
Dat alles niet voor niets is
 G
Geweest

G
Je kunt je eigen regels maken en bepalen
    C/B         C
Daar in ben je vrij
    G
Het spel begint en dat het eindigt is gegeven
     C/B           D
Maar daar blijft het bij
   G
Er is geen schuld maar elke stap heeft consequenties
 C/B    C
Voor iedereen
                    D
En toch speel je dit spel
 G
Alleen

Oh ik kan maar niet bevatten
Waar en waarom ik hier ben
Zoekend naar een antwoord
Op een vraag die niemand kent
Oh ik wil dit spel best spelen
Maar hoe moet dat
Als ik niet weet wat het doel is
Moet ik dan blind geloven
Dat het zo z'n reden heeft
Dat geen mens mij kan vertellen
Waarom ik dit leven leef
En dat alles hier dus neerkomt
Op vertrouwen
En dat ik net dat gevoel mis

Chorus


Good luck grts da kaak
Suggest correction
comments
print report bad tab
guest
You may want to rate the tab now too:
select rating
Wanna post a correction for this tab? Suggest correction