Oops, an error
Loading. Please wait.

Ik Leef Niet Meer Voor Jou Bass Tab

version 1
version 1

Whole song

Interactive

3,089 views 9 this week
no commentswrite comment
1 2 3 4 5
accurate
x 3
add to favorites
launch autoscroll
font size
0
reset
guitar tuner
Autoscroll
slow
fast
+/-
esc
set tempo
stop
Help us to improve Ultimate-Guitar.com Take our survey!
×
Author
  Q=160
 4/4
                                                Gtr I
                                                     |-3-|      |-3-|
  W    +W       W     W   W   W   W   H.   Q    E. S E E E E. S E E E
|----|-------|-<5>--|---|---|---|---|---------|--------------------------|
|----|-------|------|---|---|---|---|---------|------5----------5--------|
|----|-------|------|---|---|---|---|---------|-7--7---7-5-7--7---7-5----|
|-0--|-(0)---|------|---|---|---|---|----/14\-|--------------------------|
|----|-------|------|---|---|---|---|---------|--------------------------|


       |-3-|      |-3-|        |-3-|      |-3-|        |-3-| |-3--|
  E. S E E E E. S E E E   E. S E E E E. S E E E   E. S E E E Q Q  Q
|-----------------------|-----------------------|----------------------|
|------5----------5---0-|------0----------0-----|------0---------------|
|-7--7---7-5-7--7---7---|-2--2---2-0-2--2---2-0-|-2--2---2-0-2-5--6----|
|-----------------------|-----------------------|----------------------|
|-----------------------|-----------------------|----------------------|


       |-3-|      |-3-|        |-3-|      |-3-|
  E. S E E E E. S E E E   E. S E E E E. S E E E
|-----------------------|-----------------------|
|------5----------5-----|------5----------5---0-|
|-7--7---7-5-7--7---7-5-|-7--7---7-5-7--7---7---|
|-----------------------|-----------------------|
|-----------------------|-----------------------|


       |-3-|      |-3-|        |-3-| |3-|
  E. S E E E E. S E E E   E. S E E E Q  E E E
|-----------------------|----------------------|
|------0----------0-----|------0---------------|
|-2--2---2-0-2--2---2-0-|-2--2---2-0-2--0-1-2--|
|-----------------------|----------------------|
|-----------------------|----------------------|


  +W          +W        Wx3
|----------|----------|--------|
|----------|----------|--------|
|-(2)------|--(2)-----|--------|
|----------|----------|--------|
|----------|----------|--------|


  H.      E E   E e H    E E   E e H    E E   E e H    E E
|-------------|--------------|--------------|--------------|
|-------------|--------------|--------------|--------------|
|-------------|-3-3----------|-3-3----------|--------------|
|-----------3-|------------3-|--------------|-3-3----------|
|-------------|--------------|------------3-|------------3-|


  E e H    E E   E e H    E E   E e H    E E   E e H    Q
|--------------|--------------|--------------|----------------|
|--------------|--------------|--------------|----------------|
|--------------|-5-5----------|-2-2----------|-2-2------------|
|-3-3--------5-|------------2-|------------2-|--------/12\----|
|--------------|--------------|--------------|----------------|


       |-3-|      |-3-|        |-3-|      |-3-|        |-3-|      |-3-|
  E. S E E E E. S E E E   E. S E E E E. S E E E   E. S E E E E. S E E E
|-----------------------|-----------------------|--------------------------|
|-2--2-2---0-2--2-2---0-|-2--2-2---0-2--2-2---0-|--------------------------|
|--------2----------2---|--------2----------2---|-2--2-2---0-2--2-2---0----|
|-----------------------|-----------------------|--------2----------2------|
|-----------------------|-----------------------|--------------------------|


       |-3-|      |-3-|        |-3-|      |-3-|        |-3-|      |-3-|
  E. S E E E E. S E E E   E. S E E E E. S E E E   E. S E E E E. S E E E
|-----------------------|-----------------------|--------------------------|
|-----------------------|-----------------------|--------------------------|
|-2--2-2---0-2--2-2---0-|-----------------------|--------------------------|
|--------2----------2---|-3--3-3---0-3--3-3---0-|-3--3-3---0-3--3-3---0----|
|-----------------------|--------3----------3---|--------3----------3------|


       |-3-|      |-3-|        |-3-|      |-3-|
  E. S E E E E. S E E E   E. S E E E E. S E E E
|-----------------------|-----------------------|
|-----------------------|-----------------------|
|-2--2-2---0-2--2-2---0-|-2--2-2---0-2--2-2---0-|
|--------2----------2---|--------2----------2---|
|-----------------------|-----------------------|


       |-3-|      |-3-|        |-3-|      |-3-|
  E. S E E E E. S E E E   E. S E E E E. S E E E
|-----------------------|------------------------|
|-----------------------|------------------------|
|-3--3-3---0-3--3-3---0-|-3--3-3---0-3--3-3---0--|
|--------3----------3---|--------3----------3----|
|-----------------------|------------------------|


       |-3-|      |-3-|        |-3-|      |-3-|        |-3-|      |-3-|
  E. S E E E E. S E E E   E. S E E E E. S E E E   E. S E E E E. S E E E
|-----------------------|-----------------------|--------------------------|
|-----------------------|-----------------------|--------------------------|
|-----------------------|-----------------------|-5--5-5-0-3-5--5-5-3-0----|
|-3--3-3---0-3--3-3---0-|-3--3-3---0-3--3-3---0-|--------------------------|
|--------3----------3---|--------3----------3---|--------------------------|


       |-3-|      |-3-|        |-3-|      |-3-|          |-3-|      |-3-|
  E. S E E E E. S E E E   E. S E E E E. S E E E     E. S E E E E. S E E E
|-----------------------|-----------------------||---------------------------|
|-----------------------|-----------------------||o-2--2-2-0---2--2-2-0------|
|-2--2-2---0-2--2-2---0-|-2--2-2---0-2--2-2---0-||-----------2----------2----|
|--------2----------2---|--------2----------2---||o--------------------------|
|-----------------------|-----------------------||---------------------------|


                                                  1.
       |-3-|      |-3-|        |-3-|      |-3-|        |-3-|      |-3-|
  E. S E E E E. S E E E   E. S E E E E. S E E E   E. S E E E E. S E E E
|-----------------------|-----------------------|---------------------------||
|-2--2-2-0---2--2-2-0---|-----------------------|--------------------------o||
|----------2----------2-|-2--2-2-0---2--2-2-0---|-2--2-2-0---2--2-2-0-------||
|-----------------------|----------2----------2-|----------2----------2----o||
|-----------------------|-----------------------|---------------------------||


  2.
                      |-3-|      |-3-|        |-3-|      |-3-|
  H    Q  Q      E. S E E E E. S E E E   E. S E E E E. S E E E
|------------||------------------------|--------------------------|
|------------||o-2--2-2-0---2--2-2-0---|-2--2-2-0---2--2-2-0------|
|-2----2--5--||-----------2----------2-|----------2----------2----|
|------------||o-----------------------|--------------------------|
|------------||------------------------|--------------------------|


       |-3-|      |-3-|        |-3-|      |-3-|
  E. S E E E E. S E E E   E. S E E E E. S E E E
|-----------------------|-----------------------|
|-----------------------|-----------------------|
|-2--2-2-0---2--2-2-0---|-2--2-2-0---2--2-2-0---|
|----------2----------2-|----------2----------2-|
|-----------------------|-----------------------|


       |-3-|      |-3-|        |-3-|      |-3-|
  E. S E E E E. S E E E   E. S E E E E. S E E E
|-----------------------|------------------------|
|-----------------------|------------------------|
|-----------------------|------------------------|
|-3--3-3-0---3--3-3-0---|-3--3-3-0---3--3-3-0----|
|----------3----------3-|----------3----------3--|


       |-3-|      |-3-|        |-3-|      |-3-|
  E. S E E E E. S E E E   E. S E E E E. S E E E
|-----------------------|--------------------------|
|-----------------------|--------------------------|
|-2--2-2-0---2--2-2-0---|-2--2-2-0---2--2-2-0------|
|----------2----------2-|----------2----------2----|
|-----------------------|--------------------------|


       |-3-|      |-3-|        |-3-|      |-3-|
  E. S E E E E. S E E E   E. S E E E E. S E E E
|-----------------------|-----------------------|
|-----------------------|-----------------------|
|-3--3-3---0-3--3-3---0-|-3--3-3---0-3--3-3---0-|
|--------3----------3---|--------3----------3---|
|-----------------------|-----------------------|


       |-3-|      |-3-|        |-3-|      |-3-|        |-3-|      |-3-|
  E. S E E E E. S E E E   E. S E E E E. S E E E   E. S E E E E. S E E E
|-----------------------|-----------------------|-----------------------|
|-----------------------|-----------------------|-----------------------|
|-----------------------|-----------------------|-5--5-5-0-3-5--5-5-3-0-|
|-3--3-3---0-3--3-3---0-|-3--3-3---0-3--3-3---0-|-----------------------|
|--------3----------3---|--------3----------3---|-----------------------|


                         1.
       |-3-|      |-3-|        |-3-|      |-3-|
  E. S E E E E. S E E E   E. S E E E E. S E E E
|-----------------------|------------------------||
|-----------------------|-----------------------o||
|-2--2-2---0-2--2-2---0-|-2--2-2---0-2--2-2---0--||
|--------2----------2---|--------2----------2---o||
|-----------------------|------------------------||


  2.
   |--3--|  |--3--|  |--3--|
   E  E  E  E  E  E  E  E  E  Q
|----------16----14----------------|
|----------------------16----14----|
|-14-14-14----14----14----14-------|
|----------------------------------|
|----------------------------------|


       |-3-|      |-3-|        |-3-|      |-3-|
  E. S E E E E. S E E E   E. S E E E E. S E E E
|-----------------------|-----------------------|
|------5----------5-----|------5----------5---0-|
|-7--7---7-5-7--7---7-5-|-7--7---7-5-7--7---7---|
|-----------------------|-----------------------|
|-----------------------|-----------------------|


       |-3-|      |-3-|        |-3-| |-3-|
  E. S E E E E. S E E E   E. S E E E Q Q Q
|-----------------------|------------------|
|------0----------0-----|------0-----------|
|-2--2---2-0-2--2---2-0-|-2--2---2-0-2-5-6-|
|-----------------------|------------------|
|-----------------------|------------------|


       |-3-|      |-3-|        |-3-|      |-3-|
  E. S E E E E. S E E E   E. S E E E E. S E E E
|-----------------------|-----------------------|
|------5----------5-----|------5----------5---0-|
|-7--7---7-5-7--7---7-5-|-7--7---7-5-7--7---7---|
|-----------------------|-----------------------|
|-----------------------|-----------------------|


       |-3-|      |-3-|        |-3-|
  E. S E E E E. S E E E   E. S E E E E. S Q
|-----------------------|----------------------|
|------0----------0-----|------0---------------|
|-2--2---2-0-2--2---2-0-|-2--2---2-0-2--0-1----|
|-----------------------|----------------------|
|-----------------------|----------------------|


  W          +W           Wx7
|----------|------------|--------|
|----------|------------|--------|
|-2--------|-(2)--------|--------|
|----------|------------|--------|
|----------|------------|--------|


  |-3-| |-3-| |-3-| |-3-|        |-3-|      |-3-|        |-3-|      |-3-|
  E E E E E E E E E E E E   E. S E E E E. S E E E   E. S E E E E. S E E E
|-------------------------|-----------------------|-----------------------|
|-------------------------|-----------------------|-----------------------|
|-2-2-2-2-2-2-2-2-2-2-2-2-|-3--3-3---0-3--3-3---0-|-3--3-3---0-3--3-3---0-|
|-------------------------|--------3----------3---|--------3----------3---|
|-------------------------|-----------------------|-----------------------|


       |-3-|      |-3-|        |-3-|      |-3-|        |-3-|      |-3-|
  E. S E E E E. S E E E   E. S E E E E. S E E E   E. S E E E E. S E E E
|-----------------------|-----------------------|--------------------------|
|-----------------------|-----------------------|--------------------------|
|-----------------------|-----------------------|-5--5-5-0-3-5--5-5-3-0----|
|-3--3-3---0-3--3-3---0-|-3--3-3---0-3--3-3---0-|--------------------------|
|--------3----------3---|--------3----------3---|--------------------------|


                         6/4
       |-3-|      |-3-|         |--3--|
  E. S E E E E. S E E E   E. S  E  E  E  W
|-----------------------|---------------------|
|-----------------------|---------------------|
|-2--2-2-0---2--2-2-0---|-2--2-14-14-14-14----|
|----------2----------2-|---------------------|
|-----------------------|---------------------|


         |-3-|      |-3-|        |-3-|      |-3-|        |-3-|      |-3-|
    E. S E E E E. S E E E   E. S E E E E. S E E E   E. S E E E E. S E E E
||------------------------|-----------------------|------------------------|
||o-----------------------|-----------------------|------------------------|
||-------1----------1-----|------1----------1-----|-5--5-5-0-3-5--5-5-0-3--|
||o-3--3---3-1-3--3---3-1-|-3--3---3-1-3--3---3-1-|------------------------|
||------------------------|-----------------------|------------------------|


  1.,2.,3.              4.
       |-3-|             |--3--|  |--3--|
  E. S E E E Q Q         E  E  E  E  E  E  Q   Q
|--------------------||---------------------------|
|-------------------o||-----------------------15--|
|-5--5-5-0-3-5-------||-17-17-17-17-17-17-17------|
|--------------1----o||---------------------------|
|--------------------||---------------------------|


         |-3-|      |-3-|        |-3-|      |-3-|
    E. S E E E E. S E E E   E. S E E E E. S E E E
||------------------------|------------------------|
||o-----------------------|------------------------|
||-------1----------1-----|------1----------1------|
||o-3--3---3-1-3--3---3-1-|-3--3---3-1-3--3---3-1--|
||------------------------|------------------------|


                         1.                         2.
       |-3-|      |-3-|        |-3-|      |-3-|     |--3--| |--3--|
  E. S E E E E. S E E E   E. S E E E E. S E E E     Q  Q  Q Q  Q  Q
|-----------------------|------------------------||--------------------|
|-----------------------|-----------------------o||---------2--3--4----|
|-5--5-5-0-3-5--5-5-0-3-|-5--5-5-0-3-5--5-5-0-3--||-3--4--5------------|
|-----------------------|-----------------------o||--------------------|
|-----------------------|------------------------||--------------------|


  Q  H.
|--------*|----|
|-5------*|----|
|--------*|----|
|--------*|----|
|--------*|----|


#------------------------------------------------------------------------#

Duration Legend
---------------
W - whole; H - half; Q - quarter; E - 8th; S - 16th; T - 32nd; X - 64th; a - acciaccatura
+ - note tied to previous; . - note dotted; .. - note double dotted
Uncapitalized letters represent notes that are staccato (1/2 duration)
Irregular groupings are notated above the duration line
Duration letters will always appear directly above the note/fret number it represents the
duration for.  Duration letters with no fret number below them represent rests.  Multi-
bar rests are notated in the form Wxn, where n is the number of bars to rest for.  Low
melody durations appear below the staff

Tablature Legend
----------------
 h   - hammer-on
 p   - pull-off
 b   - bend
 pb  - pre-bend
 r   - bend release (if no number after the r, then release immediately)
 /\  - slide into or out of (from/to "nowhere")
 s   - legato slide
 S   - shift slide
 - natural harmonic
[n]  - artificial harmonic
n(n) - tapped harmonic
 ~   - vibrato
 tr  - trill
 T   - tap
 TP  - trem. picking
 PM  - palm muting
\n/  - tremolo bar dip; n = amount to dip
 \n  - tremolo bar down
 n/  - tremolo bar up
/n\  - tremolo bar inverted dip
 =   - hold bend; also acts as connecting device for hammers/pulls
 <> - volume swell (louder/softer)
 x   - on rhythm slash represents muted slash
 o   - on rhythm slash represents single note slash

Misc Legend
-----------
 |  - bar
||  - double bar
||o - repeat start
o|| - repeat end
*|  - double bar (ending)
 :  - bar (freetime)
 $  - Segno
 &  - Coda
Tempo markers -  = BPM(8/16=s8/s16), where s8 = swing 8ths, s16 = swing 16ths



Good luck grts da kaak
Suggest correction
Give kudos to tab author, rate the tab!
1 2 3 4 5
comments
print report bad tab
guest
You may want to rate the tab now too:
select rating
Wanna post a correction for this tab? Suggest correction