Oops, an error
Loading. Please wait.

A Partir De Hoy Tab

108 views 1 this week
no commentswrite comment
1 2 3 4 5
3 more votes to show rating
add to favorites
launch autoscroll
font size
0
reset
how to read this tab
guitar tuner
×
Best way to learn
"A Partir De Hoy"
Autoscroll
slow
fast
+/-
esc
set tempo
stop
INTRO:
               C                          Am

e)-------0------------0-----|-------0------------O-----|
B)-----1---1--------1---1---|-----1---1--------1---1---|
G)---0-------0----0-------0-|---2-------2----2-------2-|
D)--------------------------|--------------------------|
A)-3------------3-----------|-0------------0-----------|
E)--------------------------|--------------------------|

              F               Dm     C    G7

e)-------1------------1-----|--1--|--0--|--1--|
B)-----1---1--------1---1---|--3--|--1--|--0--|
G)---2-------2----2-------2-|--2--|--2--|--0--|
D)--------------------------|--0--|--0--|--0--|
A)-3------------3-----------|--0--|--3--|--2--|
E)--------------------------|--X--|--X--|--3--|

TABLURA PARA LAS ESTROFAS 1ra,2da Y LA 3ra (después del CORO)

               C                          Am

e)-------0------------0-----|-------0------------O-----|
B)-----1---1--------1---1---|-----1---1--------1---1---|
G)---0-------0----0-------0-|---2-------2----2-------2-|
D)--------------------------|--------------------------|
A)-3------------3-----------|-0------------0-----------|
E)--------------------------|--------------------------|


              F                          G

e)-------1------------1-----|-------3------------3-----|
B)-----1---1--------1---1---|-----3---3--------3---3---|
G)---2-------2----2-------2-|---0-------0----0-------0-|
D)--------------------------|--------------------------|
A)-3------------3-----------|-2------------2-----------|
E)--------------------------|--------------------------|

ahora solo tienen que aprenderse el arpegio de cada nota (esta fácil)
y aplicarlo cada ves que lo indique y listo saben la canción !! ;) suerte

1ra ESTROFA  "ARPEGIO"

               C
a partir de hoy tu mirada es mi reflejo
     Am
el reflejo de mis sueños
                                 F
cuando sueño con un beso se transforma en un te quiero
                 G
un te quiero de tu voz

2da ESTROFA  "ARPEGIO"

              C
a partir de hoy has cambiado lo que siento
                  Am
siento que cada momento se desaparece el tiempo
                F
cuando estoy contigo amor
               G
solo estamos tu y yo

TABLURA PARA EL PRE-CORO

      Am             Am7                  F

e)-------0-----|-------0-----|-------1------------1-----|
B)-----1---1---|-----1---1---|-----1---1--------1---1---|
G)---2-------2-|---0-------0-|---2-------2----2-------2-|
D)-------------|-------------|--------------------------|
A)-0-----------|-0-----------|-3------------3-----------|
E)-------------|-------------|--------------------------|

              Dm                          G

e)-------1------------1-----|-------3------------3-----|
B)-----3---3--------3---3---|-----3---3--------3---3---|
G)---2-------2----2-------2-|---0-------0----0-------0-|
D)--------------------------|--------------------------|
A)-0------------0-----------|-2------------2-----------|
E)--------------------------|--------------------------|


ahora solo tienen que aprenderse el arpegio de cada nota (esta facil)
y aplicarlo cada ves que lo indique y listo saben la cancion !! ;) suerte

PRE-CORO  "ARPEGIO"

        Am    Am7
no hace falta mas
          F
que estas junto a ti
        Dm
por que tengo el amor que me das
        G
por que tu tienes todo de mi

CORO "RASGUEO"
      C
a partir de hoy te entrego el corazón
      Am
mi secreto, mi destino y mi ilusión
      F            C
cada lugar cada rincón
     Dm          G
mi locura y mi razón
      C
a partir de hoy te digo que te amo
        Am
que no puedo estar sin ti por que te extraño
        F           C             Dm G
es para ti todo mi amor, todo de mi
   [PUENTE: C - Am - F - G (desde C se toca con el arpego de las estrofas)]
a partir de hoy

3ra ESTROFA "ARPEGIO"

             C
a partir de hoy te acompañan mis latidos
                      Am
vas conmigo en mis sentidos

pienso que si estoy contigo
                       F
ya no hay nadie alrededor
                  G
solo estamos tu y yo


PRE-CORO "RASGUEO"
        Am    Am7
no hace falta mas
          F
que estas junto a ti
        Dm
por que tengo el amor que me das
        G
por que tu tienes todo de mi


CORO
      C
a partir de hoy te entrego el corazón
      Am
mi secreto, mi destino y mi ilusión
      F            C
cada lugar cada rincón
     Dm          G
mi locura y mi razón
      C
a partir de hoy te digo que te amo
        Am
que no puedo estar sin ti por que te extraño
        F           C             Dm G
es para ti todo mi amor, todo de mi

INMEDIATAMENTE DESPUÉS DE "G" ENTRA LO SIGUIENTE CON RASGUEO
      Am                        Em
el destino hizo un plan casi perfecto
       F
nos queremos con errores
       C
con virtudes con temores
      Dm                     G     F     C      F  G
nos amamos a pesar de los defectoooos     ooooooo

TABLURA PARA EL INICIO DEL CORO

               C                          Am

e)-------0------------0-----|-------0------------O-----|
B)-----1---1--------1---1---|-----1---1--------1---1---|
G)---0-------0----0-------0-|---2-------2----2-------2-|
D)--------------------------|--------------------------|
A)-3------------3-----------|-0------------0-----------|
E)--------------------------|--------------------------|

              F                          C

e)-------1------------1-----|-------0------------0-----|
B)-----1---1--------1---1---|-----1---1--------1---1---|
G)---2-------2----2-------2-|---0-------0----0-------0-|
D)--------------------------|--------------------------|
A)-3------------3-----------|-3------------3-----------|
E)--------------------------|--------------------------|

CORO
"ARPEGIO"
      C
a partir de hoy te entrego el corazón
      Am
mi secreto, mi destino y mi ilusión
      F            C
cada lugar cada rincón
RASGUEO: Dm          G
   mi locura y mi razón
         C
   a partir de hoy te digo que te amo
           Am
   que no puedo estar sin ti por que te extraño
           F           C             Dm G
   es para ti todo mi amor, todo de mi

AQUI SE TOCA EL ARPEGIO COMO SE TOCA EN EL INTRO

             C Am F Dm C G7 (AL ULTIMO UN C° AL AIRE SI GUSTAN)
a partir de hoy

   C°

e)--0--|
B)--0--|
G)--0--|
D)--2--|
A)--3--|
E)--X--|

SALUDOS A EL PRFE MONTOYA Y A LOS CAMARADAS DEL COBAES 23 ;)

si gustan mas apollo o lo que sea

face: juan carlos chavarria zepeda
correo: 
Suggest correction
Give kudos to tab author, rate the tab!
1 2 3 4 5
comments
print report bad tab
guest
You may want to rate the tab now too:
select rating
Wanna post a correction for this tab? Suggest correction