Oops, an error
Loading. Please wait.

Tinnamorerai tab

268 views 6 this week
no commentswrite comment
1 2 3 4 5
3 more votes to show rating
add to favorites
×
Save as Personal and add changes to this tab that will be seen only by you. Learn more ›
×
You can save this tab as Personal to edit and correct it or add notes. All changes will be seen only by you. Learn more »
launch autoscroll
font size
0
reset
how to read this tab
guitar tuner
edit
Autoscroll
slow
fast
+/-
esc
set tempo
stop
[Intro]

E|--------0---------------------------------------|
B|-----2-----2--------5-----------3-----------2---|
G|--2--------------6-----6-----2-----2-----1-----1|  repeat 3 times
D|--------------6-----------4-----------2---------| 
A|------------------------------------------------|
E|------------------------------------------------|

[Verse 1]

T'innamorerai forse non di me
E|--------0---------------------------------------|
B|-----2-----2--------5-----------3-----------2---|
G|--2--------------6-----6-----2-----2-----1-----1|  
D|--------------6-----------4-----------2---------| 
A|------------------------------------------------|
E|------------------------------------------------|

Starai ferma lì e succederа da sè...da sè
E|--------0---------------------------------------|
B|-----2-----2--------5-----------3-----------2---|
G|--2--------------6-----6-----2-----2-----1-----1| repeat 2 times 
D|--------------6-----------4-----------2---------| 
A|------------------------------------------------|
E|------------------------------------------------|

Della libertà degli amici tuoi
E|--------0---------------------------------------|
B|-----2-----2--------5-----------3-----------2---|
G|--2--------------6-----6-----2-----2-----1-----1|  
D|--------------6-----------4-----------2---------| 
A|------------------------------------------------|
E|------------------------------------------------|

Te ne fregherai quando t'innamorerai...vedrai...
E|--------0---------------------------------------|
B|-----2-----2--------5-----------3-----------2---|
G|--2--------------6-----6-----2-----2-----1-----1| repeat 2 times 
D|--------------6-----------4-----------2---------| 
A|------------------------------------------------|
E|------------------------------------------------|

Sarà bello da guardare come un poster di James Dean
E|--------0---------------------------------------|
B|-----2-----2--------5-----------3-----------2---|
G|--2--------------6-----6-----2-----2-----1-----1|  
D|--------------6-----------4-----------2---------| 
A|------------------------------------------------|
E|------------------------------------------------|

Sarà dolce la paura sganciandosi i blue jeans
E|--------0---------------------------------------|
B|-----2-----2--------5-----------3-----------2---|
G|--2--------------6-----6-----2-----2-----1-----1|  
D|--------------6-----------4-----------2---------| 
A|------------------------------------------------|
E|------------------------------------------------|

Sarà grande come il mare sarà forte come un Dio
E|--------0---------------------------------------|
B|-----2-----2--------5-----------3-----------2---|
G|--2--------------6-----6-----2-----2-----1-----1|  
D|--------------6-----------4-----------2---------| 
A|------------------------------------------------|
E|------------------------------------------------|

Sarà il primo vero amore quello che non sono io
E|--------0---------------------------------------|
B|-----2-----2--------5-----------3-----------2---|
G|--2--------------6-----6-----2-----2-----1-----1|  
D|--------------6-----------4-----------2---------| 
A|------------------------------------------------|
E|------------------------------------------------|

[Chorus]

C       Em   F        G          
T'innamorerai di un bastardo che
C       Em   F        G              C  Em
Ti dirа bugie per portarti via da me...
F       G    C  Em  F    G       C    Em
Chi ti difenderа dal buio della notte
F        G           C  Em   F          G
Da questa vita che non dа quel che promette

[Verse 2]
T'innamorerai, lo so certo non di me
In profondità che non sai di avere in te... in te
Sarai sola contro tutti perchè io non ci sarò
Quando piangi e lavi i piatti e la vita dice no
Un ritardo di sei giorni che non sai se dirlo a lui
Avrai voglia di pensarmi tu che adesso non mi vuoi

[Chorus]
T'innamorerai... di me
Ma non sarò io... con te
T'innamorerai quando sarа tardi ormai
E il cielo piangerà
Gli mancherà una stella
Vai con la tua felicità
F        G     F
Sei troppo bella

A  C#m  D  E (repeat 2 times)

A      C#m      D       E
T'innamorerai t'innamorerai
A      C#m      D       E                  A  C#m  D  E
T'innamorerai non di me ma t'innamorerai
Suggest correction
Creating personal tab
Creating personal tab
You can edit any tab online and save it as your Personal.

You can edit, replace or remove any tab part or add personal notes – all changes will be seen only by you.

Personal tabs can be accessed anytime from any device, even offline.
Learn more »
Give kudos to tab author, rate the tab!
1 2 3 4 5
comments
print report bad tab
guest
You may want to rate the tab now too:
select rating
Wanna post a correction for this tab? Suggest correction